Gametabs
Home
Tabs
Random

Strago

Average rating: No ratings

Composer:

Tabber:

Style:

Instrument:

Created: March 02, 2009 at 12:00 AM

                                 Final Fantasy VI - Strago BASS TAB
                           Song by Nobuo Uematsu

                  Tabbed by auriplane ([email protected])
                               On Mar 2, 2009

Four-string bass, standard tuning.

    Part A

G |---7--6-----|---7--6-----|---7--6-----|---7--6-----|
D |5-----------|5-----------|5-----------|5-----------|
A |------------|------------|---------5--|------------|
E |------------|------------|------------|------------|
                                       
G |---7--6-----|---7--6-----|---7--6-----|---7--6-----|
D |5-----------|5-----------|5-----------|5-----------|
A |------------|------------|---------5--|------------|
E |------------|------------|------------|------------|

    Part B  (Repeat twice)

G |---7--6-----|---7--6-----|---7--6-----|---7--6-----|
D |5-----------|5-----------|5-----------|5-----------|
A |------------|------------|---------5--|------------|
E |------------|------------|------------|------------|
                                          
G |---7--------|------------|---7--6-----|---7--6-----|
D |5-----------|---8--------|5-----------|5-----------|
A |------8-----|6-----5-----|---------5--|------------|
E |------------|------------|------------|------------|

    Part C

G |---5--4-----|---5--4-----|---5--4-----|---5--4-----|
D |3-----------|3-----------|3-----------|3-----------|
A |------------|------------|---------3--|------------|
E |------------|------------|------------|------------|
                                          
G |---7--6-----|---7--6-----|---7--6-----|---7--6-----|
D |5-----------|5-----------|5-----------|5-----------|
A |------------|------------|---------5--|------------|
E |------------|------------|------------|------------|

G |------------|------------|------------|------------|
D |3--------3--|------------|------------|3--------3--|
A |------------|6-----------|---3--4--6--|------------|
E |------------|------------|6-----------|------------|
                                          
G |------------|------------|---7--------|------------|
D |------------|------------|------7--5--|4-----------|
A |6-----------|------------|------------|------5-----|
E |------------|------------|------------|------------|

        
Comments

No comments yet