Gametabs
Home
Tabs
Random

Strago

Average rating: 2.000

1 ratings

Composer:

Tabber:

Style:

Instrument:

Created: October 03, 2007 at 12:00 AM

                                             Strago (ff3)                                   

Gtr 1
                                      S  S  S  S  E   S S  E   S S  E   S S
E||-------|-------|-------|-------|------------------13---11-------15-------|
B||-------|-------|-------|-------|-----------13-15-----------15-------15---|
G||-------|-------|-------|-------|--12-14-15-------------------------------|
D||-------|-------|-------|-------|-----------------------------------------|
A||-------|-------|-------|-------|-----------------------------------------|
E||-------|-------|-------|-------|-----------------------------------------|

   E.   T   T   H         E  E      S S  S  S S S  S S  S S  E  E  E
--11---13p-11p-10---------L-----|--10-8----10-8------8----------------|
--------------------------------|-------11--------10---11---10--8--7--|
--------------------------------|-------------------------------------|
--------------------------------|-------------------------------------|
--------------------------------|-------------------------------------|
--------------------------------|-------------------------------------|

  H.           Q        S  S  S  S  E   S S  E   S S  E   S S
--------------------|------------------13---11-------15-------|
--8-----------------|-----------13-15-----------15-------15---|
--------------------|--12-14-15-------------------------------|
--------------------|-----------------------------------------|
--------------------|-----------------------------------------|
--------------------|-----------------------------------------|

   E.   T   T   H         E  E      S S  S  S S S  S S  S S  E  E  E
--11---13p-11p-10---------L-----|--10-8----10-8------8----------------|
--------------------------------|-------11--------10---11---10--8--7--|
--------------------------------|-------------------------------------|
--------------------------------|-------------------------------------|
--------------------------------|-------------------------------------|
--------------------------------|-------------------------------------|

  H.           Q
--------------------|-------|-------|
--8-----------------|-------|-------|
--------------------|-------|-------|
--------------------|-------|-------|
--------------------|-------|-------|
--------------------|-------|-------|

   S  S  S  S  S  S  S  S  S  S  S  S  S  S  S  S     H.           Q
--------------------------------------------------|---------------------|
--------15-17-18-17-15----15-17-15----15----------|---------------------|
--15-17----------------18----------17----18-15-14-|--15-----------------|
--------------------------------------------------|---------------------|
--------------------------------------------------|---------------------|
--------------------------------------------------|---------------------|

  H         E   E   E   E      Q     E   E   E   E   E   E
-------------------11--15--|--13S----9--11------13--16--20--|-------|-------||
---------------13----------|----------------13--------------|-------|-------||
-----------12--------------|--------------------------------|-------|-------||
---------------------------|--------------------------------|-------|-------||
---------------------------|--------------------------------|-------|-------||
---------------------------|--------------------------------|-------|-------||

Duration Legend
---------------
W - whole
H - half
Q - quarter
E - 8th
S - 16th
T - 32nd
X - 64th
. - note dotted
|-n-|  - n-tuplets





                                 Strago (ff3)                                   

Gtr 2
E||-------|-------|-------|-------|-------|-------|-------|-------|-------|
B||-------|-------|-------|-------|-------|-------|-------|-------|-------|
G||-------|-------|-------|-------|-------|-------|-------|-------|-------|
D||-------|-------|-------|-------|-------|-------|-------|-------|-------|
A||-------|-------|-------|-------|-------|-------|-------|-------|-------|
E||-------|-------|-------|-------|-------|-------|-------|-------|-------|

                           S  S  S  S  S  S  S  S  S  S  S  S  S  S  S  S
-------|-------|-------|--------------------------------------------------|
-------|-------|-------|--------13-15-16-15-13----13-15-13----13----------|
-------|-------|-------|--13-15----------------16----------15----16-13-12-|
-------|-------|-------|--------------------------------------------------|
-------|-------|-------|--------------------------------------------------|
-------|-------|-------|--------------------------------------------------|

   H.           Q                        Q    E   E  Q.     E
---------------------|-------|-------|---------------8---------|
---------------------|-------|-------|--------9----------------|
--13-----------------|-------|-------|--10-------10------------|
---------------------|-------|-------|-------------------------|
---------------------|-------|-------|-------------------------|
---------------------|-------|-------|-------------------------|

   Q     E   E   Q.     E      E   S  S  S S  S S  S S  S S  S S  S S
----------------13---------|------------13----------------------------|
--------14-----------------|--13--14-16------16---14---13--------14---|
--15--------15-------------|--------------------------------15--------|
---------------------------|------------------------------------------|
---------------------------|------------------------------------------|
---------------------------|------------------------------------------|

   H        H
---------------------||
--13-----------------||
---------------------||
---------------------||
---------------------||
---------------------||

Duration Legend
---------------
W - whole
H - half
Q - quarter
E - 8th
S - 16th
T - 32nd
X - 64th
. - note dotted
|-n-|  - n-tuplets





                                 Strago (ff3)                                   

Gtr 3
      S  S  S S Q     S  S  S S Q       S S S S H.
E||--10--9-10------------------------|-----------------------|
B||--11-10-11--------11-10-11--------|--8-7-8----------------|
G||------------------12-11-12--------|--7-5------------------|
D||----------------------------------|------8----------------|
A||----------------------------------|-----------------------|
E||----------------------------------|-----------------------|

   S  S  S S Q     S  S  S S Q       S S S S H.
--10--9-10------------------------|-----------------------|
--11-10-11--------11-10-11--------|--8-7-8----------------|
------------------12-11-12--------|--7-5------------------|
----------------------------------|------8----------------|
----------------------------------|-----------------------|
----------------------------------|-----------------------|

  E  S S E  S S E  S S E  S S    E  S S E  S S E  S S E  S S
------------------------------|------------------------------|
------------------------------|------------------------------|
-----7-7----7-7----7-7----7-7-|-----7-7----7-7----7-7----7-7-|
-----8-8----8-8----8-8----8-8-|-----8-8----8-8----8-8----8-8-|
------------------------------|------------------------------|
------------------------------|------------------------------|

  E  S S E  S S E  S S E  S S    E  S S E  S S E  S S E  S S
------------------------------|------------------------------|
------------------------------|------------------------------|
-----7-7----5-5----3-3----5-5-|-----7-7----7-7----7-7----7-7-|
-----8-8----7-7----5-5----7-7-|-----8-8----8-8----8-8----8-8-|
------------------------------|------------------------------|
------------------------------|------------------------------|

  E  S S E  S S E  S S E  S S    E  S S E  S S E  S S E  S S
------------------------------|------------------------------|
------------------------------|------------------------------|
-----7-7----7-7----7-7----7-7-|-----7-7----7-7----7-7----7-7-|
-----8-8----8-8----8-8----8-8-|-----8-8----8-8----8-8----8-8-|
------------------------------|------------------------------|
------------------------------|------------------------------|

  E  S S E  S S E  S S E  S S    E  S S E  S S E  S S E  S S
------------------------------|------------------------------|
------------------------------|------------------------------|
-----7-7----5-5----3-3----5-5-|-----7-7----7-7----7-7----7-7-|
-----8-8----7-7----5-5----7-7-|-----8-8----8-8----8-8----8-8-|
------------------------------|------------------------------|
------------------------------|------------------------------|

  E  S S E  S S E  S S E  S S    E  S S E  S S E  S S E  S S
------------------------------|------------------------------|
------------------------------|------------------------------|
-----5-5----5-5----5-5----5-5-|-----5-5----5-5----5-5----5-5-|
-----6-6----6-6----6-6----6-6-|-----6-6----6-6----6-6----6-6-|
------------------------------|------------------------------|
------------------------------|------------------------------|

  E  S S E  S S E  S S E  S S    E  S S E  S S E  S S E  S S
------------------------------|------------------------------|
------------------------------|------------------------------|
-----7-7----7-7----7-7----7-7-|-----7-7----7-7----7-7----7-7-|
-----8-8----8-8----8-8----8-8-|-----8-8----8-8----8-8----8-8-|
------------------------------|------------------------------|
------------------------------|------------------------------|

  Q    Q    Q    Q       H        H
----------------------|--------------------|-------|-------||
----------------------|--------------------|-------|-------||
----------------------|--------------------|-------|-------||
--6----5----8----6----|--4-----------------|-------|-------||
--8----6----8----8----|--6-----------------|-------|-------||
----------------------|--------------------|-------|-------||

Duration Legend
---------------
W - whole
H - half
Q - quarter
E - 8th
S - 16th
T - 32nd
X - 64th
. - note dotted
|-n-|  - n-tuplets

        
Comments

@Trogdor (July 09, 2007 at 11:39 PM)

wow that's a lot of teamwork there lol!