Gametabs
Home
Tabs
Random

Searching for Friends

Average rating: 4.600

5 ratings

Composer:

Tabber:

Style:

Instrument:

Created: January 27, 2013 at 12:00 AM

            Searching For Friends                               
Final Fantasy VI
Nobuo Uematsu
JordanVS


*Capo on 5th fret 



     H.           E  S  S    W                   H.           E  S  S  
E||--0--------------------|--2----------------|--3--------------------|
B||--0--------------------|--2----------------|--3--------------------|
G||--1--------------------|--3----------------|--4--------------------|
D||-----------------------|-------------------|---------------L-------|
A||------------------2h-3-|-------------------|------------------0h-2-|
E||--0------------L-------|--0----------------|--0------------L-------|


  H        H             Q.     E  Q.     S S    Q    Q    Q    E  E   
--5-----------------||---0---------3----------|--2----0---------------|
--5-----------------||---0---------5----------|--0---------3----------|
--6-----------------||*--0---------0----------|------------4----0--2--|
--------------------||*--2------0-------------|-----------------------|
-----------0--------||-------------3--------0-|--2--------------------|
--0-----------------||--------------------3---|-------3----3----------|


  Q.     E  Q    E  E     H        E.  E.  E     Q.     E  Q.     S S  
-----------------------|----------------------|--0---------3----------|
--0------0-------------|--0-------------------|--0---------5----------|
--0---------2----0--2--|----------------------|--0---------0----------|
--2--------------------|--1--------4-------1--|--2------0-------------|
--3------3--0----0--1--|--2--------L---4------|------------3------2-3-|
-----------------------|----------------------|-----------------------|

                                                 1.

  Q    Q    E.  S E  E     Q    Q    E.  S E  E     H        Q    Q       
--5----3----2-----------|--0----3----2-----------|--0-------------------||
--3---------------3-----|-------2----0-----4-----|--0-------------------||
------------2-----------|--0---------------------|--0--------2---------*||
--0---------------------|----------------4----1--|--2------------------*||
-------1----2---2----1--|--0----1----2-----------|----------------------||
------------------------|------------------------|----------------------||

2.
                                           NH   NH                             
  H.           Q       E  E  E  E  E  E    E    E     E  E  E  E  E  E  E  E   
--0-----------------|-----------------0-------<>5--|--------0-----3-----0-----|
--0-----------------|--------------0-----<>5-------|--------1--------1--------|
--2-----------------|-----------1------------------|-----------0-----------0--|
--2-----------------|--------2---------------------|--------------------------|
---------------2----|-----2------------------------|--3--3--------------------|
--------------------|--0---------------------------|--------------------------|


  E  E  Q    E  E  Q       E  E  E  E  E  E  E  E     E  E  Q.     E  E  E   
--2-----0----------0----|--2-----------------5-----|--3---------------------|
--3-----1----3-----1----|--3--------------0--------|--0------------0--------|
-------------4----------|--------------------------|------------------------|
------------------------|-----------4-----------4--|--2--2------------2-----|
--3--3-------3--3-------|--2--2--------------------|---------------------2--|
------------------------|--------------------------|------------------------|


  E  E  E  E  E  E  E  E     E  E  Q    E  E  Q       E  E  E  E  E  Q    E   
--------------0-----------|------------------------|-------------------------|
--------1-----1-----1-----|--3-----1----0-----1----|--3----------------------|
--------2--------2--------|--4-----2----0-----2----|--4----------------------|
-----------2-----------2--|--0--0-------0--0-------|--5--5-----------5-------|
--0--0--------------------|------------------------|-----------5----------5--|
--------------------------|------------------------|-------------------------|


  E  E  Q    E  E  Q       E  E  E  E  E  E  E  E     E  E  Q    E  E  Q     
------------------------|--------0-----3-----0-----|--2-----0----------0----|
------------------------|--------1--------1--------|--3-----1----3-----1----|
------------------------|-----------0-----------0--|-------------2----------|
--2--2-------0--0-------|--------------------------|------------------------|
------------------------|--3--3--------------------|--3--3-------3--3-------|
------------------------|--------------------------|------------------------|


  E  E  E  E  E  E  E  E     E  E  Q.     E  E  E     E  E  E  E  E  E  E  E   
--2-----------------5-----|--4---------------------|--7-----------L--7--5--3--|
--3--------------0--------|--5------------0--------|--5-----------L-----------|
--------------------------|------------------------|--5-----------L-----------|
-----------4-----------4--|--2--2------------2-----|-----------------7-----2--|
--2--2--------------------|---------------------2--|--0--0-----7--------------|
--------------------------|------------------------|--------------------------|


  E  E  Q    E  E  Q       E  E  E  E  E  E  E  E     E  E  Q    E  E  Q     
--0---------------------|--------------0-----1-----|--6-----5----3-----1----|
--1---------------------|--------3-----1-----------|--8-----6----5-----3----|
--2---------------------|--------3--------3-----2--|--0--0------------------|
--3--3-------3--3-------|-----------3--------------|-------------0--0-------|
------------------------|--1--1--------------------|------------------------|
------------------------|--------------------------|------------------------|


  E  E  E  E  E  Q    E     E  E  Q    E  E  Q       E  E  E  E  E  Q    E   
--0----------------------|--L---------------------|--5----------------------|
--2--------------0-------|--L---------------------|--4--------------0-------|
--2----------------------|--L---------------------|--2----------------------|
-----------4----------4--|------------------------|-----------4----------4--|
--2--2-------------------|--2--2-------2--2-------|--2--2-------------------|
-------------------------|------------------------|-------------------------|


                          ^                  
  Q    E  Q.     E  E     W                  
-----------------------|--0----------------||
-------0---------0-----|--0----------------||
-----------------------|--0----------------||
--------------------1--|--2----------------||
--2-------4------------|-------------------||
-----------------------|-------------------||




Duration Legend
---------------
W - whole
H - half
Q - quarter
E - 8th
S - 16th
. - note dotted
|-n-|  - n-tuplets


Tablature Legend
----------------
L - tied note
NH - natural harmonic
^ - brush up
v - brush down
        
Comments

@TrangOul (January 29, 2013 at 3:06 PM)

Not bad at all, though there's something about your tabs that keeps bothering me: You sometimes forget to include the chord's third or confuse minor and major; e.g. the very first chord in this song should be E minor. (originally A minor)