Gametabs
Home
Tabs
Random

Returners

Average rating: 5.000

2 ratings

Composer:

Tabber:

Style:

Instrument:

Created: September 10, 2013 at 12:00 AM

                               Final Fantasy VI - Returners BASS TAB
                         Composed by Nobuo Uematsu

                  Tabbed by auriplane ([email protected])


Four-string bass, standard tuning.

    Intro

G |--------|--------|
D |--------|--------|
A |5-3-5-3-|5-3-5-3-|
E |--------|--------|

    Part A

G |--------|--------|--------|
D |--------|--------|--------|
A |5-3-5-3-|5-3-5-3-|5-3-5-3-|
E |--------|--------|--------|

G |--------|--------|--------|--------|
D |--------|--------|--------|--------|
A |5-3-5-3-|5-3-5-3-|5-3-5-3-|5-3-5-3-|
E |--------|--------|--------|--------|

G |--------|--------|--------|
D |--------|--------|--------|
A |5-3-5-3-|5-3-5-3-|5-3-5-3-|
E |--------|--------|--------|

    Part B

G |--------|------5-|3-------|--------|
D |----3---|--5-3---|--4-3---|--------|
A |5-3-----|3-------|------6-|4-4-4-4-|
E |------6-|--------|--------|--------|

G |2---2---|2-------|
D |--5---5-|--5-3-2-|
A |--------|--------|
E |--------|--------|

    Part C

G |--------|--------|--------|
D |--------|--------|--------|
A |5-3-5-3-|5-3-5-3-|5-3-5-3-|
E |--------|--------|--------|

G |--------|--------|--------|--------|
D |--------|--------|--------|--------|
A |5-3-5-3-|5-3-5-3-|5-3-5-3-|5-3-5-3-|
E |--------|--------|--------|--------|

G |--------|--------|--------|
D |--------|--------|--------|
A |5-3-5-3-|5-3-5-3-|5-3-5-3-|
E |--------|--------|--------|

    Part D

G |--------|--------|--------|
D |--------|--------|--------|
A |5-3-5-3-|5-3-5-3-|5-3-5-3-|
E |--------|--------|--------|

G |5-4-3---|--------|--------|--------|
D |------6-|4-3-2---|--------|--------|
A |--------|------5-|4-2-4-2-|4-2-4-2-|
E |--------|--------|--------|--------|

    Repeat back to the Intro.


        
Comments

@musenji (September 11, 2013 at 4:40 AM)

As weird-ass as this sounds playing along on a regular guitar,

puts on spectacles

"I do believe that all of the notes are correct!" "Indeed, Jeeves, and in their proper rhythm!" "Hear hear!" "Jolly good!"