Gametabs
Home
Tabs
Random

Relm's Theme

Average rating: 5.000

2 ratings

Composer:

Tabber:

Style:

Instrument:

Created: January 22, 2014 at 12:00 AM

            -------------------------------------------------------------------------------
                             Relms theme - Final Fantasy III (VI)
-------------------------------------------------------------------------------
Tabbed by: Anders Olsson Aka: Tritoch21 
Email: [email protected]

Tuning: Standard



e|----12p11-----------------------------------------------0-----------------|
B|------------12p10------------------------------------------0--------------|
G|---------------------13------------------------9--------------2-----------|
D|-----------------------------------9--------------------------------------|
A|----------------------------11-----------11-------------------------------|
E|---------------------0----------------------------------------------------|




e|---0----------0----------------------------4h5----7-------0----------------|
B|------0----------0------------------------------------4--------------------|
G|---------2---------------------1----------------------------------1----2---|
D|---------------------------------------------------------------------------|
A|---------------------------2-----------------------------------2-----------|
E|----------------------0-----------------------------------0----------------|




e|--------0--------0---------0------------------------------------12---11----|
B|---0-------0---------0--------0--------------------------------------------|
G|--------------2---------2---------------------1----------------------------|
D|----------------------------------------------------------9----------------|
A|-----------------------------------------2----------------------11---------|
E|-------------------------------------0----------------0--------------------|





e|---7----------9----5---7----4---------------12p11---------------------------|
B|----------------------------------------------------12p10-------------------|
G|-------------------6----------------1--------------------------13-----------|
D|----------6-----------------------------------------------------------------|
A|------7------------0------------2-----------------------------------11------|
E|----------------------------0----------------------------------0------------|



e|-------------7----------------0----------------+12+------------------------|
B|-------10---------------7-------------0------------------------------------|
G|------------------------8----------1------1--------------------------------|
D|--9---------------------9--------------------------------------------------|
A|------------------9--------------------------------------------------------|
E|-------------7----------------0--------------------------------------------|



e|----12p11-----------------------------------------------0-----------------|
B|------------12p10------------------------------------------0--------------|
G|---------------------13-----------9------------9--------------2-----------|
D|--------------------------------------------------------------------------|
A|----------------------------11-----------11-------------------------------|
E|---------------------0----------------------------------------------------|




e|---0----------0----------------------------4h5----7-------0----------------|
B|------0----------0------------------------------------4--------------------|
G|---------2---------------------1----------------------------------1--------|
D|---------------------------------------------------------------------------|
A|---------------------------2-----------------------------------2-----------|
E|----------------------0-----------------------------------0----------------|



e|-----------5------4----------------------------------------0---------------|
B|---7-------0--------------------------2----2-------/4----------------------|
G|---------------------------------------------------------------------1-----|
D|---------------------------6-------------------------------------2---------|
A|-------6---------------7-----------------------------------4---------------|
E|---7--------------0--------------------------------------------------------|


e|----2-----/4------4--------------7-----------------------4-----------------|
B|---------------------------------------4---------------------4-------------|
G|-----------------------------------------------------------------5---------|
D|------------------------2------------------------6-------------------6-----|
A|------------------4--------------------------6-------6---------------------|
E|---------------------------------------4-----------------------------------|



e|----------------------------------------------------------------0----------|
B|----4-h-5-----2------------2----2----4----0--------------------------------|
G|--------------------------------2--------------------------------------2---|
D|------------------2-------------2-----------------2----1------------3------|
A|----0-----------------4---------0--------------2----------------4----------|
E|------------------------------------------0--------------------------------|


e|----2---/4-----4-----------7--------11----------------------11h12-----7----|
B|---------------------------------------------------------------------------|
G|---------------------------------------------------9-----------------------|
D|---------------------2-------------------------9---------------------------|
A|---------------4--------------------------------------------0--------------|
E|------------------------------------------7--------------------------------|



e|---5-----4-----2----5---4-------2------------------------------------------|
B|---------2--------------2-------4------------------------------------------|
G|---------2--------------2-------4------------------------------------------|
D|------------------------2-------4------------------------------------------|
A|---------2--------------4-------2------------------------------------------|
E|---------------------------------------------------------------------------|
        
Comments

@Graphesium (January 24, 2014 at 1:33 AM)

The Listen url is missing an "h" at the beginning.


@musenji (October 28, 2014 at 3:49 AM)

This is very nice, especially after watching the video of you playing it (baller), but:

  1. the formatting, oh dear god the formatting.
  2. third to last line at the end of the line should be 421 not 431, even confirmed by watching the video.
  3. ...um. did I mention the formatting?