Gametabs
Home
Tabs
Random

Phantom Train

Average rating: 5.000

1 ratings

Composer:

Tabber:

Style:

Instrument:

Created: June 15, 2021 at 12:00 AM

            Title: Phantom Train
Album: Final Fantasy VI
Music: Nobuo Uematsu
Tabber: H.F.

Tempo = 162


E |--7----|--10----8----|--7----|--5-----3----|--0-----0----|--3-----1----|
B |--8----|--10---------|--8----|--5----------|-----4-------|--4----------|
G |--9----|--8----------|--9----|--3----------|--4----------|--2----------|
D |-------|--9----------|-------|-------------|-------------|-------------|
A |-------|-------------|-------|-------------|-------------|-------------|
E |-------|-------------|-------|-------------|-------------|-------------|


--0----|-------|--0----|--0----|--0----|--3-----2----|--0----|-------------|
--0----|-------|--0----|--3----|--1----|--4----------|-------|-------------|
--0----|-------|-------|--2----|--0----|--4----------|--2----|--2--1-------|
-------|-------|--2----|--0----|-------|-------------|--2----|--------4----|
-------|--2----|-------|-------|--3----|--2----------|-------|-------------|
-------|-------|-------|-------|-------|-------------|-------|-------------|


-------|-------||-0----|--3-----1----|--0----|-------------|--0----|
-------|-------||-0----|--4----------|--0----|--3-----1----|--0----|
--1----|-------||o0----|--2----------|--0----|--3----------|--0----|
-------|-------||o-----|-------------|-------|-------------|-------|
-------|-------||------|-------------|-------|--3----------|-------|
-------|-------||-0----|--1----------|--0----|-------------|--0----|


--3-----2----|--0----------|-------------|--0-----2----|--3-----5----|
--4----------|--0----------|-------------|--0----------|--4----------|
--2----------|--0----------|-------------|--0----------|--2----------|
-------------|-------------|--------1----|-------------|-------------|
--2----------|-------------|--2--4-------|-------------|--2----------|
-------------|--0----------|-------------|--0----------|-------------|


-----6--6----|--6--6--6----|--6--6--6----|--6--5--3----|--0----|
-----5--5----|--4--4--4----|--3--3--3----|-------------|--0----|
-----0--0----|--0--0--0----|--0--0--0----|--6----------|--0----|
-------------|-------------|-------------|--3----------|-------|
-------------|--3----------|-------------|-------------|-------|
--0----------|-------------|--0----------|-------------|--0----|


---------------------||-------||-0----------|-------------|-------------|
---------------------||-------||-------4----|--3-----2----|--1----------|
--------------------o||-------||o-----------|--0-----2----|--3----------|
--------------------o||-------||o2-----4----|-------------|-------------|
--2-----------4h-6---||-------||------------|--------0----|--1----------|
---------------------||-------||-0-----2----|--3----------|-------------|


-------------|-------------|-------------|--0----------|------------||
-------------|--0-----0----|--2-----4----|-------------|--3-----1---||
--0--2--3----|-----3-------|--0----------|-------------|--2--------o||
-------------|-------------|--1-----3----|--2----------|--1--------o||
--1--0-------|--------2----|-------------|-------------|--2---------||
--------3----|--2----------|-------------|--0----------|------------||


-------------|--0----------|-------------||
--2-----4----|-------------|-------------||
-------------|-------------|-------------||
--4-----1----|--2----------|-------------||
-------------|-------------|--2--2--2----||
-------------|--0----------|-------------||


        
Comments

No comments yet