Gametabs
Home
Tabs
Random

Phantom Forest

Average rating: 5.000

7 ratings

Composer:

Tabber:

Style:

Instrument:

Created: February 13, 2012 at 12:00 AM

                                 Phantom Forest - Final Fantasy VI
                              Nobuo Uematsu                        
                      (Arranged by Nathan Nordstrom)


Tab: Nathan Nordstrom
2/13/2012


                                                                      
Acoustic Guitar 1  (Capo 7)
*Please note the tuning*


    3/4 120bpm

      E  E  Q    E  E     E  E  Q    E  E     E  E  Q    E  E   
D||--------------------|-------------------|-------------------|
A||--------------------|-------------------|-------------------|
F||*-----0----------0--|-----0----------0--|-----0----------0--|
D||*-------------------|-------------------|-------------------|
A||---0-----0----0-----|--1-----1----1-----|--2-----2----2-----|
D||---0----------------|--0----------------|--0----------------|


                        ^                   ^                 
  E  E  Q    E  E       E  E  Q    E  E     E  E  Q    E  E   
--------------------||--------3----2-----|--0----------------|
--------------------||-------------------|--------3----1-----|
-----0----------0--*||-----0----------0--|-----0----------0--|
-------------------*||--0----------------|-------------------|
--1-----1----1------||--0-----0----0-----|--1-----1----1-----|
--0-----------------||--0----------------|--0----------------|


  ^                                       ^                                     
  E  E  Q    E  E     E  E  Q    E  E     E  E  Q    E  E     E  E  Q    E  E   
-------------------|-------------------|-------------------|-------------------|
--0----------------|-------------------|--0----------------|-------------------|
-----0----------0--|-----0--0----2--0--|-----0----------0--|-----0----------0--|
-------------------|-------------------|-------------------|-------------------|
--2-----2----2-----|--1-----1----1-----|--0-----0----0-----|--1-----1----1-----|
--0----------------|--0----------------|--0----------------|--0----------------|


  ^                                       ^                   ^                 
  E  E  Q    E  E     E  E  Q    E  E     E  E  Q    E  E     E  E  Q    E  E   
--7----------------|-------------------|--------3----2-----|--0----------------|
-------------------|-------------------|-------------------|--------3----1-----|
-----0----------0--|-----0----------0--|-----0----------0--|-----0----------0--|
-------------------|-------------------|--0----------------|-------------------|
--2-----2----2-----|--1-----1----1-----|--0-----0----0-----|--1-----1----1-----|
--0----------------|--0----------------|--0----------------|--0----------------|


  ^                                       ^                   ^                 
  E  E  Q    E  E     E  E  Q    E  E     E  E  Q    E  E     E  E  Q    E  E   
-------------------|-------------------|-------------------|-------------------|
--0----------------|-------------------|-------------1-----|-------------------|
-----0----------0--|-----0--0----2--0--|--4----------------|--2----------------|
-------------------|-------------------|-----1----------1--|-----1----------1--|
--2-----2----2-----|--1-----1----1-----|--1-----1----1-----|--0-----0----0-----|
--0----------------|--0----------------|--1----------------|--1----------------|


                      ^                                      
  E  E  Q    E  E     E  E  Q    E  E     E  E  E  E  E  E   
-------------------|--------3----1-----|--0-----------------|
-------------------|-------------------|--0-----------------|
-------------------|--2----------------|--0-----0-----0-----|
-----1----------1--|-----1----------1--|--------------------|
--1-----1----1-----|--3-----3----3-----|-----0-----0-----0--|
--1----------------|--1----------------|--0-----------------|


  E  E  E  E  E  E     E  E  E  E  E  E     E  E  E  E  E  E   
--------------------|--------------------|--------------------|
--------------------|--------------------|--------------------|
--------0-----0-----|--------0-----0-----|--------0-----0-----|
--------------------|--------------------|--------------------|
-----1-----1-----1--|-----2-----2-----2--|-----1-----1-----1--|
--0-----------------|--0-----------------|--0-----------------|


 Segno

                       ^                    ^                  
  E  E  E  E  E  E     E  E  E  E  E  E     E  E  E  E  E  E   
--------3-----2-----|--0-----------------|--------------------|
--------------------|--1-----3-----1-----|--0-----------------|
--------0-----0-----|--0-----0-----0-----|--0-----0-----0-----|
--0-----------------|--------------------|--0-----------------|
-----0-----0-----0--|-----1-----1-----1--|-----2-----2-----2--|
--0-----------------|--0-----------------|--0-----------------|


  E  E  E  E  E  E     E  E  E  E  E  E     E  E  E  E  E  E   
--------------------|--------------------|--------------------|
--------------------|--0-----------------|--------------------|
--------0-----2-----|--0-----0-----0-----|--------0-----0-----|
--------------------|--0-----------------|--------------------|
-----1-----1-----1--|-----0-----0-----0--|-----1-----1-----1--|
--0-----------------|--0-----------------|--0-----------------|


  E  E  E  E  E  E     E  E  E  E  E  E     E  E  E  E  E  E   
--------------------|--------------------|--------3-----2-----|
--------------------|--------------------|--------------------|
--------0-----0-----|--------0-----0-----|--------0-----0-----|
--------------------|--------------------|--0-----------------|
-----2-----2-----2--|-----1-----1-----1--|-----0-----0-----0--|
--0-----------------|--0-----------------|--0-----------------|


  ^                    ^                                       
  E  E  E  E  E  E     E  E  E  E  E  E     E  E  E  E  E  E   
--0-----------------|--------------------|--------------------|
--1-----3-----1-----|--0-----------------|--------------------|
--0-----0-----0-----|--0-----0-----0-----|--------0-----2-----|
--------------------|--0-----------------|--------------------|
-----1-----1-----1--|-----2-----2-----2--|-----1-----1-----1--|
--0-----------------|--0-----------------|--0-----------------|


  ^                    ^                                       
  E  E  E  E  E  E     E  E  E  E  E  E     E  E  E  E  E  E   
--------------------|--------------------|--------------------|
--------------1-----|--------------------|--------------------|
--4-----------------|--2-----------------|--------------------|
--1-----1-----1-----|--1-----1-----1-----|--------1-----1-----|
-----1-----1-----1--|-----0-----0-----0--|-----1-----1-----1--|
--1-----------------|--1-----------------|--1-----------------|


                       ^             AH         AH                     
  E  E  E  E  E  E     E  E  E  E    E  E       E  E  E  E  E  E   
--------------------|--7-------------------|----------------------|
--------------------|--1-----------<>1-----|----------------------|
--------------------|----------------------|--<>2-----------------|
--------1-----1-----|--------1-------1-----|----------1-----1-----|
-----3-----3-----3--|-----1-----1-------1--|-------0-----0-----0--|
--1-----------------|--1-------------------|----1-----------------|


  ^                    ^                                       
  E  E  E  E  E  E     E  E  E  E  E  E     E  E  E  E  E  E   
--5-----------------|--5-----3-----1-----|--0-----------------|
--1-----------------|--3-----------------|--0-----------------|
--------------------|--------------------|--0-----0-----0-----|
--------1-----1-----|--------1-----1-----|--------------------|
-----1-----1-----1--|-----3-----3-----3--|-----0-----0-----0--|
--1-----------------|--1-----------------|--0-----------------|


                                            >        >         
  E  E  E  E  E  E     E  E  E  E  E  E     E  E  E  E  E  E   
--------------------|--------------------|--------------------|
--------------------|--------------------|--------------------|
--------0-----0-----|--------0-----0-----|--------0-----0-----|
--------------------|--------------------|--------------------|
-----1-----1-----1--|-----2-----2-----2--|-----1-----1-----1--|
--0-----------------|--0-----------------|--0--------2--------|


  >                                                            
  E  E  E  E  E  E     E  E  E  E  E  E     E  E  E  E  E  E   
--------------------|--------------------|--------------------|
--------------------|--------------------|--------------------|
--------0-----0-----|--------0-----0-----|--------------------|
--------------------|--------------------|--------0-----------|
-----0-----0-----0--|-----1-----1-----1--|-----2--------------|
--0-----------------|--0-----------------|--0--------0--2--3--|


  E  E  E  Q.        E  E  E  E  E  E     E  E  E  E  E  E   
------------------|--------------------|--------------------|
------------------|--------------------|--------------------|
------------------|--------------------|--2-----------------|
------------------|--0-----2-----3-----|--------3-----2-----|
------------------|-----1-----1-----1--|-----1-----1-----1--|
--2--3--5---------|--3-----------------|--3-----------------|


                                          ^                  
  E  E  E  E  E  E     E  E  E  Q.        E  E  E  E  E  E   
--------------------|------------------|--0-----2-----3-----|
--------------------|------------------|--1-----------------|
--------------------|------------------|-----0-----0-----0--|
--0-----------------|------------------|--------------------|
-----0--1-----3--0--|--1-----1---------|--1-----------------|
--3--------3--------|-----5------------|--------------------|


  ^                    ^                    ^                  
  E  E  E  E  E  E     E  E  E  E  E  E     E  E  E  E  E  E   
--5-----3-----2-----|--0-----------------|--0-----------0-----|
--5-----------------|--1-----------------|--1-----3-----------|
-----0-----0-----0--|--------0-----0-----|--------0-----0-----|
--------------------|--------------------|--------------------|
--1-----------------|-----1-----1-----1--|-----1-----1-----1--|
--------------------|--3-----------------|--3-----------------|


  ^                    ^                    ^                  
  E  E  E  E  E  E     E  E  E  E  E  E     E  E  E  E  E  E   
--2-----------3-----|--------------------|--0-----------------|
--3-----------------|--3-----------------|--0-----------------|
--------0-----0-----|--0-----------0-----|--------0-----0-----|
--------------------|--------2-----------|--------------------|
-----0-----0-----0--|-----0-----0-----0--|-----0-----0-----0--|
--3-----------------|--3-----------------|--3-----------------|


                         ^                                  ^          
  Q    Q    Q       Q    Q    Q       H        Q       Q    Q    Q     
-----------------|-------2----3----|----------------|-----------------|
--3--------------|-------3----3----|--3-------------|-------2----3----|
--4--------------|-------4----4----|--4-------------|-------4----4----|
-----------------|-----------------|--3-------------|-------3----3----|
-------0---------|-----------------|-----------1----|--0--------------|
--3---------5----|--3--------------|----------------|-----------------|


                  ^                    ^                                       
  H.              E  E  E  E  E  E     E  E  E  E  E  E     E  E  E  E  E  E   
---------------|--0-----2-----3-----|--5-----3-----2-----|--0-----------------|
--0------------|--1-----------------|--5-----------------|--1-----------------|
--0------------|-----0-----0-----0--|-----0-----0-----0--|--------------------|
--1------------|--------------------|--------------------|--------------------|
---------------|--1-----------------|--1-----------------|-----0--1-----3--0--|
---------------|--------------------|--------------------|--3--------3--------|


                                                   Da Coda

                     ^                    ^                  
  E  E  E  Q.        E  E  E  E  E  E     E  E  E  E  E  E   
------------------|--0-----2-----3-----|--5-----7-----8-----|
------------------|--1-----------------|--5-----------------|
------------------|-----0-----0-----0--|-----0-----0-----0--|
------------------|--------------------|--------------------|
--1-----1---------|--1-----------------|--1-----------------|
-----5------------|--------------------|--------------------|


    NH           AH         NH           AH        AH                  
    E  E  Q      Q          E  E  Q      Q         E  E  H         
---------------<>1----|--<>12----------<>1----|-------------------|
----------------------|-----------------------|--<>3--------------|
--<>7-----------------|-----------------------|----------5--------|
----------6-----------|-----------6-----------|-------3-----------|
-------6--------------|--------8--------------|----1--------------|
----6-----------------|-----6-----------------|-------------------|


         AH      NH   AH      AH                                    
  Q      Q       E    E       E  E  H           E  E  H         
-------<>1----<>12-------|-------------------|-----------------|
--------------------<>1--|--<>3-----3--------|--------3--------|
-------------------------|-------2-----------|-----3-----------|
-------------------------|-------------------|-----------------|
--1----------------------|----3--------------|--3--------------|
-------------------------|-------------------|-----------------|


                     D.S. al Coda    Coda

                                        NH           AH      
  E  E  H           E  E  H             E  E  Q      Q     
-----------------|-----------------|---------------<>1----|
--------3--------|--------3--------|----------------------|
-----4-----------|-----3-----------|--<>7-----------------|
-----------------|-----------------|----------6-----------|
--3--------------|--3--------------|-------6--------------|
-----------------|-----------------|----6-----------------|


 Slow Tempo ---------------------------------------------------------

     NH           AH        AH                       AH      NH   AH    
     E  E  Q      Q         E  E  H           Q      Q       E    E   
--<>12----------<>1----|-------------------|-------<>1----<>12-------|
-----------------------|--<>3--------------|--------------------<>1--|
-----------------------|----------5--------|-------------------------|
-----------6-----------|-------3-----------|-------------------------|
--------8--------------|----1--------------|--1----------------------|
-----6-----------------|-------------------|-------------------------|


    AH
    H.              H.             
-----------------|---------------||
--<>3------------|--L------------||
-----------------|---------------||
-----------------|---------------||
----3------------|--L------------||
-----------------|---------------||




Duration Legend
---------------
W - whole
H - half
Q - quarter
E - 8th
S - 16th
T - 32nd
X - 64th
. - note dotted
|-n-|  - n-tuplets


Tablature Legend
----------------
L - tied note
x - dead note
g - grace note
(n) - ghost note
> - accentuded note
NH - natural harmonic
AH - artificial harmonic
TH - tapped harmonic
SH - semi harmonic
PH - pitch harmonic
h - hammer on
p - pull off
b - bend
br - bendRelease
pb - preBend
pbr - preBendRelease
brb - bendReleaseBend
\n/ - tremolo bar dip
\n - tremolo bar dive
-/n - tremolo bar Release up
/n\ - tremolo bar inverted dip
/n - tremolo bar return
-\n - tremolo bar Release down
S - shift slide
s - legato slide
/ -  slide into from below or out of upwards
\ -  slide into from above or out of downwards
~ - vibrato
W - wide vibrato
tr - trill
TP - tremolo picking
T - tapping
S - slap
P - pop
< - fade in
^ - brush up
v - brush down
        
Comments

@natenmn (February 13, 2012 at 7:14 AM)

Oh yeah, please note that all of the artificial harmonics are plucked 12 nodes higher than the specified fret.

Also, keep in mind that the capo on the 7th fret really helps with the barre + stretch in measure 41 and the fingering in a few other measures.


@karathrow (February 13, 2012 at 9:49 AM)

So I started playing FFVI this last week and got stuck pretty early in. I couldn't remember where I was supposed to go so I checked a guide. Apparently I needed to go the phantom forest, so I was looking that up in one tab and then opened up gametabs and saw this.

Timing is so random @_@


@Jacob31593 (February 13, 2012 at 11:07 AM)

nice tab! i was playing this earlier on piano~


@TrangOul (February 13, 2012 at 11:58 AM)

The Capo really makes this song, both in regard to playability and sound.


@thiagobpaiva (February 17, 2012 at 9:22 PM)

This is perfect Natemmnn, great job! The tuning is different but whatever. xD


@GabrielBocanegra (March 12, 2021 at 5:27 AM)

That was gnarly.