Gametabs
Home
Tabs
Random

Mog

Average rating: 5.000

2 ratings

Composer:

Tabber:

Style:

Instrument:

Created: March 30, 2012 at 12:00 AM

            Title: Mog's Theme
Artist: Nobuo Uematsu
Album: FF VI OST
Copyright: Squaresoft
Tabber: Hashel05
Tempo = 160


Melody

E |----|----|--13-12-13------------------|----------------------------||
B |----|----|-----------12-13------------|----------------------------||
G |----|----|--------------------13-14---|----------------------------||
D |----|----|----------------------------|--15----9--10-12------------||
A |----|----|----------------------------|----------------------------||
E |----|----|----------------------------|----------------------------||


-------------------------------------13------------------------------------|
----------------------------10---------------------------------------------|
o9--------10-------12----------------------------------12h---14h---15------|
o--------------------------------------------------------------------------|
---------------------------------------------------------------------------|
---------------------------------------------------------------------------|


--12----------------------------------10------------------------------------|
-----------------------------------------------13-------11-------10---------|
--------------------10h---12h---14------------------------------------------|
----------------------------------------------------------------------------|
----------------------------------------------------------------------------|
----------------------------------------------------------------------------|


----------------------------|----------------|
----------------------------|----------------|
--12----12------------------|----------------|
-----------15-13----11------|--9-------------|
----------------------------|----------------|
----------------------------|----------------|


--------------------------------------13------------------------------------|
-----------------------------10---------------------------------------------|
--9--------10-------12----------------------------------12h---14h---15------|
----------------------------------------------------------------------------|
----------------------------------------------------------------------------|
----------------------------------------------------------------------------|


--12----------------------------------10------------------------------------|
-----------------------------------------------13-------11-------10---------|
--------------------10h---12h---14------------------------------------------|
----------------------------------------------------------------------------|
----------------------------------------------------------------------------|
----------------------------------------------------------------------------|


----------------------------|----------------|
----------------------------|--14------------|
--12----12----------12------|----------------|
-----------15-13------------|----------------|
----------------------------|----------------|
----------------------------|----------------|


--------------------------------------13------------------------------------|
-----------------------------10---------------------------------------------|
--9--------10-------12----------------------------------12h---14h---15------|
----------------------------------------------------------------------------|
----------------------------------------------------------------------------|
----------------------------------------------------------------------------|


--12----------------------------------10------------------------------------|
-----------------------------------------------13-------11-------10---------|
--------------------10h---12h---14------------------------------------------|
----------------------------------------------------------------------------|
----------------------------------------------------------------------------|
----------------------------------------------------------------------------|


----------------------------|----------------|
----------------------------|----------------|
--12----12------------------|----------------|
-----------15-13----11------|--9-------------|
----------------------------|----------------|
----------------------------|----------------|


--------------------------------------13------------------------------------|
-----------------------------10---------------------------------------------|
--9--------10-------12----------------------------------12h---14h---15------|
----------------------------------------------------------------------------|
----------------------------------------------------------------------------|
----------------------------------------------------------------------------|


--12----------------------------------10------------------------------------|
-----------------------------------------------13-------11-------10---------|
--------------------10h---12h---14------------------------------------------|
----------------------------------------------------------------------------|
----------------------------------------------------------------------------|
----------------------------------------------------------------------------|


----------------------------|----------------|--10-9--10-12-10------------|
----------------------------|----------------|-----------------12---------|
----------------------------|----------------|--------------------12-9----|
----------------------------|--11------------|----------------------------|
--10----10-8--6-----10------|----------------|----------------------------|
----------------------------|----------------|----------------------------|


----------------------------|----------------------------|----------------|
-----------------------12---|--13-12-13-15-13------------|----------------|
-----9--12-9-----9--12------|-----------------14---------|----------------|
--12----------12------------|--------------------15-12---|--10------------|
----------------------------|----------------------------|----------------|
----------------------------|----------------------------|----------------|


--10-9--10-12-10------------|----------------------------|
-----------------12---------|--------------------12-15---|
--------------------12-9----|-----9--12-9-----12---------|
----------------------------|--12----------12------------|
----------------------------|----------------------------|
----------------------------|----------------------------|


-----------13---------------|--14-13-14-16-14-11-13-14---|
--16-15-16----16-13-15-16---|----------------------------|
----------------------------|----------------------------|
----------------------------|----------------------------|
----------------------------|----------------------------|
----------------------------|----------------------------|


--12----13-13-12-10----10---|--12-13-12------|--12----13----12-10----10---|
--------------------13------|----------------|--------------------13------|
----------------------------|----------------|----------------------------|
----------------------------|----------------|----------------------------|
----------------------------|----------------|----------------------------|
----------------------------|----------------|----------------------------|


--11------------|--13-12-13------------------|---------------------------|||
----------------|-----------12-13------------|---------------------------|||
----------------|--------------------13-14---|--------------------------o|||
----------------|----------------------------|--15----9--10-12----------o|||
----------------|----------------------------|---------------------------|||
----------------|----------------------------|---------------------------|||



Rhythm 1

E |----|----|----|----||---------------|----------------|----|----|
B |----|----|----|----||---------------|----------------|----|----|
G |----|----|----|----||o------2-------|--------2-------|----|----|
D |----|----|----|----||o------3-------|--------3-------|----|----|
A |----|----|----|----||-------3-------|--------3-------|----|----|
E |----|----|----|----||-1--1----------|--1--1----------|----|----|


----------------|----------------|----|-------|----------------|
----------------|----------------|----|-------|----------------|
--------2-------|--------2-------|----|--3----|--------2-------|
--------3-------|--------3-------|----|--4----|--------3-------|
--------3-------|--------3-------|----|--4----|--------3-------|
--1--1----------|--1--1----------|----|--2----|--1--1----------|


----------------|----|----|----------------|----------------|----|-------|
----------------|----|----|----------------|----------------|----|-------|
--------2-------|----|----|--------2-------|--------2-------|----|--3----|
--------3-------|----|----|--------3-------|--------3-------|----|--4----|
--------3-------|----|----|--------3-------|--------3-------|----|--4----|
--1--1----------|----|----|--1--1----------|--1--1----------|----|--2----|


----------------|----------------|----------------|----|----------------|
----------------|----------------|----------------|----|----------------|
--------4-------|--------4-------|--------2-------|----|--------4-------|
--------5-------|--------5-------|--------3-------|----|--------5-------|
--------5-------|--------5-------|--------3-------|----|--------5-------|
--3--3----------|--3--3----------|--1--1----------|----|--3--3----------|


----------------|----------------|----------------|-------|----|----|-------|
----------------|----------------|--------4-------|--5----|----|----|--4----|
--------4-------|--------5-------|--------4-------|--5----|----|----|--2----|
--------5-------|--------6-------|--------4-------|--5----|----|----|--4----|
--------5-------|--------6-------|--2--2----------|--3----|----|----|--2----|
--3--3----------|--4--4----------|----------------|-------|----|----|-------|


----|---|||
----|---|||
----|--o|||
----|--o|||
----|---|||
----|---|||



Rhythm 2

E |----|----|----|----||-------1--1----------------|----|
B |----|----|----|----||-------1--1----------------|----|
G |----|----|----|----||o------2--2----------------|----|
D |----|----|----|----||o3-------------------------|----|
A |----|----|----|----||---------------------------|----|
E |----|----|----|----||---------------------------|----|


--------1--1----------------|----|--------1--1----------------|----|
--------2--2----------------|----|--------1--1----------------|----|
--------1--1----------------|----|--------2--2----------------|----|
--0-------------------------|----|--3-------------------------|----|
----------------------------|----|----------------------------|----|
----------------------------|----|----------------------------|----|


--------1--1----------------|----|--------1--1----------------|----|
--------2--2----------------|----|--------1--1----------------|----|
--------1--1----------------|----|--------2--2----------------|----|
--0-------------------------|----|--3-------------------------|----|
----------------------------|----|----------------------------|----|
----------------------------|----|----------------------------|----|


--------1--1----------------|----|--------1--1----------------|----|
--------2--2----------------|----|--------1--1----------------|----|
--------1--1----------------|----|--------2--2----------------|----|
--0-------------------------|----|--3-------------------------|----|
----------------------------|----|----------------------------|----|
----------------------------|----|----------------------------|----|


--------1--1----------------|----|--------7--7--------7-------|
--------2--2----------------|----|--x--x--8--8--x--x--8--x----|
--------1--1----------------|----|--x--x--7--7--x--x--7--x----|
--0-------------------------|----|----------------------------|
----------------------------|----|----------------------------|
----------------------------|----|----------------------------|


--------7-----7-------------|--------5--5--------5-------|
--x--x--8-----8-------------|--x--x--6--6--x--x--6--x----|
--x--x--7-----7-------------|--x--x--5--5--x--x--5--x----|
----------------------------|----------------------------|
----------------------------|----------------------------|
----------------------------|----------------------------|


--------5-----5-------------|--------7--7--------7-------|
--x--x--6-----6-------------|--x--x--8--8--x--x--8--x----|
--x--x--5-----5-------------|--x--x--7--7--x--x--7--x----|
----------------------------|----------------------------|
----------------------------|----------------------------|
----------------------------|----------------------------|


--------7-----7-------------|--------8--8--------8--8----|
--x--x--8-----8-------------|--x--x--9--9--x--x--9--9----|
--x--x--7-----7-------------|--x--x--8--8--x--x--8--8----|
----------------------------|----------------------------|
----------------------------|----------------------------|
----------------------------|----------------------------|


--------8--8--------8--8----|--------8--8--------8--8----|
--x--x--9--9--x--x--9--9----|--------9--9--------8--8----|
--x--x--8--8--x--x--8--8----|--------9--9--------9--9----|
----------------------------|----------------------------|
----------------------------|----------------------------|
----------------------------|----------------------------|


--------8--8--------8--8----|--------8--8--8-----8-------|--11---|----|---|||
--------10-10-------8--8----|--------10-10-8-----8-------|--10---|----|---|||
--------10-10-------5--5----|--------10-10-9-----7-------|--12---|----|--o|||
----------------------------|----------------------------|-------|----|--o|||
----------------------------|----------------------------|-------|----|---|||
----------------------------|----------------------------|-------|----|---|||



Bass

G |----|----|----|----||---------------------------------------------------|
D |----|----|----|----||o3-------------------------------------------------|
A |----|----|----|----||o------------------------3-------------------------|
E |----|----|----|----||---------------------------------------------------|


----------------------------------------------------|
--3-------------------------------------------------|
--------------------------3-------------------------|
----------------------------------------------------|


----------------------------------------------------|
----------------------------------------------------|
--4-------------------------------------------------|
--------------------------4-------------------------|


----------------------------------------------------|
----------------------------------------------------|
--4-------------------------------------------------|
--------------------------4-------------------------|


----------------------------------------------------|
--3-------------------------------------------------|
--------------------------3-------------------------|
----------------------------------------------------|


----------------------------------------------------|
--3-------------------------------------------------|
--------------------------3-------------------------|
----------------------------------------------------|


----------------------------------------------------|
--------------------------1-------------------------|
--4-------------------------------------------------|
----------------------------------------------------|


----------------------------------------------------|
--4-------------------------------------------------|
--------------------------4-------------------------|
----------------------------------------------------|


----------------------------------------------------|
--3-------------------------------------------------|
--------------------------3-------------------------|
----------------------------------------------------|


----------------------------------------------------|
--3-------------------------------------------------|
--------------------------3-------------------------|
----------------------------------------------------|


----------------------------------------------------|
----------------------------------------------------|
--4-------------------------------------------------|
--------------------------4-------------------------|


----------------------------------------------------|
----------------------------------------------------|
--4-------------------------------------------------|
--------------------------4-------------------------|


----------------------------------------------------|
--3-------------------------------------------------|
--------------------------3-------------------------|
----------------------------------------------------|


----------------------------------------------------|
--3-------------------------------------------------|
--------------------------3-------------------------|
----------------------------------------------------|


----------------------------------------------------|
--------------------------1-------------------------|
--4-------------------------------------------------|
----------------------------------------------------|


----------------------------------------------------|
--4-------------------------------------------------|
--------------------------4-------------------------|
----------------------------------------------------|


--------------------------------------------------------------------------------
--------------------------------------------------------------------------------
--------------------------------------------------------------------------------
--3-----------------------------------------------------------------------------


--------------------------------------------------------------------|
------------------------------0-------------------------------------|
--------------------------------------------------------------------|
--------------------------------------------------------------------|


--0-----------------------------------------------------------------------------
--------------------------------------------------------------------------------
--------------------------------------------------------------------------------
--------------------------------------------------------------------------------


--------------------------------------------------------------------|
--------------------------------------------------------------------|
--------------------------------------------------------------------|
------------------------------2-------------------------------------|


--------------------------------------------------------------------------------
--------------------------------------------------------------------------------
--------------------------------------------------------------------------------
--1-----------------------------------------------------------------------------


--------------------------------------------------------------------|
--------------------------------------------------------------------|
------------------------------3-------------------------------------|
--------------------------------------------------------------------|


--------------------------------------------------------------------------------
--3-----------------------------------------------------------------------------
--------------------------------------------------------------------------------
--------------------------------------------------------------------------------


--------------------------------------------------------------------------------
--------------------------------------------------------------------------------
--------------------------------------------------------------------------------
--------------------------------------------------------------------------------


--------------------------------------------------------------------------------
--------------------------------------------------------------------------------
----------------------------------------------------------2---------------------
--------------------------------------------------------------------------------


----------------------------------------------------|
----------------------------------------------------|
--------------3-------------------------------------|
----------------------------------------------------|


--------------------------------------------------------------------------------
--------------------------------------------------------------------------------
--------------------------------------------------------------------------------
--3-----------------------------------------------------------------------------


--------------------------------------------------------------------|
------------------------------0-------------------------------------|
--------------------------------------------------------------------|
--------------------------------------------------------------------|


--0-----------------------------------------------------------------------------
--------------------------------------------------------------------------------
--------------------------------------------------------------------------------
--------------------------------------------------------------------------------


--------------------------------------------------------------------|
--------------------------------------------------------------------|
--------------------------------------------------------------------|
------------------------------3-------------------------------------|


--------------------------------------------------------------------------------
--------------------------------------------------1-----------------------------
--------------------------------------------------------------------------------
--4-----------------------------------------------------------------------4-----


--------------------|----------------------------------------------------|
--------------------|--------------------------4-------------------------|
------1-------------|--2-----------------------------------2-------------|
--------------------|----------------------------------------------------|


----------------------------------------------------|
----------------------------------------------------|
--3-------------------------------------------------|
--------------------------3-------------------------|


----------------------------------------------------|
----------------------------------------------------|
--3-------------------------------------------------|
--------------------------3-------------------------|


----------------------------------------------------|----------------|-------|
----------------------------------------------------|----------------|-------|
--3-------------------------------------------------|--2-------------|-------|
--------------------------3-------------------------|----------------|-------|


------|||
-----o|||
-----o|||
------|||
        
Comments

No comments yet