Gametabs
Home
Tabs
Random

Locke's Theme

Average rating: 4.556

9 ratings

Composer:

Tabber:

Style:

Instrument:

Created: October 15, 2012 at 12:00 AM

                                                        Locke's theme
                                          Final Fantasy VI 
                                       Composed  by Nobuo Uematsu 
                                  Tabbed by the Ripper October 14th 2012



   E  E  E  E  E  E  E  E     E  E  E  E  E  E  E  E     H        Q    Q     
E||---------------------------|--------------------------|---------------------|
B||---------------------------|--------------------3-----|--1-------------0----|
G||*--0--------L--------0--L--|--2--------------L--------|---------------------|
D||*--------------0--L--------|--------------------------|--2------------------|
A||---2-----------2--------2--|--0-----------------------|--3--------0---------|
E||---3--3-----3--3--3-----3--|--2--2-----2--2--2-----2--|--0--------2---------|


                 ^                                                           
                 |--3--|                                           |--3--|   
  Q    Q    Q    E  E  E     H        E  E  Q       Q    Q    Q    E  E  E   
-----------------------0--|--1--------0----------|--------------------------|
--------------------1-----|--------------3--1----|--L--------------0--1--3--|
--0---------L----0-----L--|----------------------|--------------------------|
------------0----2-----L--|--0-------------------|--1---------0----------L--|
--2----3----2----3--------|--1--------0-----L----|-------3------------------|
--3----5------------------|----------------------|--4----L----1----------L--|


                       ^                                            
  H.           Q       W                   E  E  E  E  E  E  E  E   
--------------------|-------------------|--------------------------|
--0-----------------|--0----------------|--------------------------|
---------------L----|-------------------|--0--------L--------0--L--|
--0------------0----|--0----------------|--------------0--L--------|
--2-----------------|--2----------------|--2-----------2-----------|
--3-----------------|--3----------------|--3--3-----3--3--3-----3--|


                             ^                                              
                                                                  |--3--|   
  E  E  E  E  E  E  E  E     H        Q    Q       Q    Q    Q    E  E  E   
--------------------------|---------------------|-----------------------0--|
--------------------3-----|--1-------------0----|--------------------1-----|
--2--------------L--------|---------------------|--0---------L----0-----L--|
--------------------------|--2------------------|------------0----2-----L--|
--0-----------------------|--3--------0---------|--2----3----2----3--------|
--2--2-----2--2--2-----2--|--0--------2---------|--3----5------------------|


                                        |--3--|                        
  H        E  E  Q       Q    Q    Q    E  E  E     H.           Q     
--1--------0----------|--------------------------|--------------------|
--------------3--1----|--L--------------0--1--3--|--0-----------------|
----------------------|--------------------------|---------------L----|
--0-------------------|--1---------0----------L--|--0------------0----|
--1--------0-----L----|-------3------------------|--2-----------------|
----------------------|--4----L----1----------L--|--3-----------------|


  H.           S  S  S S    Q.     E  E  E  E  E     H        Q    Q     
-----------------------0-|--1------1--0--------0--|---------------------|
--0------------0h-1h-3---|---------------3--1-----|--3-------------3----|
-------------------------|------------------------|-----------3----2----|
--0----------------------|--0------L--------------|-----------3----3----|
--2----------------------|------------3--------L--|--1--------6---------|
--3----------------------|------------------------|---------------------|


                                             ^                      
  W                   Q    Q    Q    Q       Q.     E  E  E  E  E   
-------------------|----------------------|--1------1--0--------0--|
--1----------------|-----------------1----|---------------3--1-----|
--2----------------|----------------------|------------------------|
-------------------|--3---------3---------|--0------L--------------|
--0----------------|-------3--------------|------------3--------L--|
--1----------------|----------------------|------------------------|


  H        E  E  E  E     Q.     E  E  E  E  E     H        Q    Q     
-----------------------|------------------------|---------------------|
--3--------------------|--3------3--1--------1--|---------------------|
-----------------------|--3------3--2--3--2--2--|--3------------------|
--0--------3--0-----3--|---------------5--3-----|--5--------1----3----|
--1--------0-----3-----|------------------------|--6------------------|
-----------------------|--3------L--1--------L--|---------------------|


  E  E  E  E  E  E  E  E     E  E  E  E  E  E  E  E     H        Q    Q     
--------------------------|--------------------------|---------------------|
--------------------------|--------------------------|---------------------|
--0--------------L--1--L--|--------------3--------L--|--1--------0----1----|
--------------------------|--3--------L--------------|-----------1----L----|
--------------------------|--------------------------|--3------------------|
--4--4-----4--4--4-----4--|--4--4-----4--4--4-----4--|--1--------3----L----|


  H        H           E  E  E  E  E  E  E  E     E  E  E  E  E  E  E  E   
--------------------|--------------------------|--------------------------|
--------------------|--------------------------|--------------------------|
--------------------|--0--------------L--1--L--|--------------3--------L--|
--3--------L--------|--------------------------|--3--------L--------------|
--4--------3--------|--------------------------|--------------------------|
--4--------L--------|--4--4-----4--4--4-----4--|--1--1-----1--1--1-----1--|


  E  E  E  E  E  E  E  E     E  E  E  E  E  E  E  E       W                  
--------------------------|---------------------------||-------------------||
--1--------------L--0--1--|--3--------L---------------||-------------------||
--------------------------|--------------------------*||--0----------------||
--------------------------|--------------------------*||-------------------||
--------------------------|--------------0--0-----0---||--2----------------||
--3--3-----3--3--3-----3--|--3--3-----3--2--2-----2---||--3----------------||



                    Legend
                ---------------
                  W - whole
                  H - half
                  Q - quarter
                  E - 8th
                  S - 16th
                  . - note dotted
                  |-n-|  - n-tuplets
                  L - tied note
                  h - hammer on
                  p - pull off
                  ^ - brush up


        
Comments

No comments yet