Gametabs
Home
Tabs
Random

Unknown Lands

Average rating: No ratings

Composer:

Tabber:

Style:

Instrument:

Created: August 20, 2010 at 12:00 AM

            Song: Unknown Lands
Game: Final Fantasy V
Composer: Nobuo Uematsu
Tabbed by: Daugreano 


Guitar: 

   H     Q    Q      H.     Q      W        H     H       H     Q    Q      H     Q    Q
E|-----------------|-6------5----|-4------|-------------|-----------------|-----------------|
B|-------3----4----|-------------|--------|-6-----------|-------2----4----|-----------------|
G|-5---------------|-------------|--------|-------6-----|-5---------------|-3-----1----3----|
D|-----------------|-------------|--------|-------------|-----------------|-----------------|
A|-----------------|-------------|--------|-------------|-----------------|-----------------|
E|-----------------|-------------|--------|-------------|-----------------|-----------------|

   W        H     H       Q    Q    H       H     Q    Q      Q    Q    H       H     H
E|--------|-------------|-----------------|-----------------|-----------------|-------------|
B|--------|-------------|-----------------|-----------------|-----------------|-6-----------|
G|-5------|-------------|-5----6----------|-8-----6----5----|-5----6----------|-------6-----|
D|--------|-6-----5-----|-----------8-----|-----------------|-----------8-----|-------------|
A|--------|-------------|-----------------|-----------------|-----------------|-------------|
E|--------|-------------|-----------------|-----------------|-----------------|-------------|

   Q    Q    H       H     Q    Q      Q    Q    H       Q    Q    Q    Q      W 
E|-----------------|-----------------|-----------------|---------------------|--------|
B|-----------------|-6---------------|-----------------|---------------------|--------|
G|-5----6----------|-------8----6----|-5----8----------|----------------5----|-6------|
D|-----------8-----|-----------------|-----------6-----|-4----6----8---------|--------|
A|-----------------|-----------------|-----------------|---------------------|--------|
E|-----------------|-----------------|-----------------|---------------------|--------|

   H     Q    Q      H     H       W        H     H       H     Q    Q      Q    Q    H
E|-9-----8----9----|-8-----6-----|--------|-------9-----|-11----9----8----|-8----9----6-----|
B|-----------------|-------------|--------|-------------|-----------------|-----------------|
G|-----------------|-------------|--------|-------------|-----------------|-----------------|
D|-----------------|-------------|--------|-------------|-----------------|-----------------|
A|-----------------|-------------|--------|-------------|-----------------|-----------------|
E|-----------------|-------------|--------|-------------|-----------------|-----------------|

   H.     E   E     H     H       H     Q    E   E     E   E   H.       H     Q    Q
E|--------4---2---|-4-----1-----|-------4----2---1---|-1---2----------|------------1----|
B|----------------|-------------|--------------------|---------4------|-------4---------|
G|----------------|-------------|--------------------|----------------|-----------------|
D|----------------|-------------|--------------------|----------------|-----------------|
A|----------------|-------------|--------------------|----------------|-----------------|
E|----------------|-------------|--------------------|----------------|-----------------|

   W        Q    Q    Q    Q      W        H     H       W
E|--------|-2----1--------------|--------|-------------|--------|
B|-2------|-----------4----2----|-2------|-0-----4-----|-2------|
G|--------|---------------------|--------|-------------|--------|
D|--------|---------------------|--------|-------------|--------|
A|--------|---------------------|--------|-------------|--------|
E|--------|---------------------|--------|-------------|--------|

Then Repeat...


        
Comments

No comments yet