Gametabs
Home
Tabs
Random

The Evil Lord Exdeath

Average rating: 4.500

8 ratings

Composer:

Tabber:

Style:

Instrument:

Created: September 17, 2009 at 12:00 AM

            Guitar 1

                        H        H           W                   W                         
C#||-------|-------||---------------------|-------------------|-------------------|-------|
G#||-------|-------||---------------------|-------------------|-------------------|-------|
E ||-------|-------||*--------------------|-------------------|-------------------|-------|
B ||-------|-------||*--------------------|-------------------|-------------------|-------|
F#||-------|-------||---8--------7--------|--6----------------|--L----------------|-------|
B ||-------|-------||---8--------7--------|--6----------------|--L----------------|-------|


   H         H            W                   W                   W                   W                 
----------------------|--------------------|-------------------|-------------------|-------------------|
----------------------|--------------------|-------------------|-------------------|-------------------|
----------------------|--------------------|-------------------|-------------------|-------------------|
----------------------|--------------------|-------------------|-------------------|-------------------|
--15--------14--------|--13----------------|--L----------------|--0----------------|--L----------------|
--15--------14--------|--13----------------|--L----------------|--0----------------|--L----------------|


  W                   W                   W                   W                   W                 
-------------------|-------------------|-------------------|-------------------|-------------------|
-------------------|-------------------|-------------------|-------------------|-------------------|
-------------------|-------------------|-------------------|-------------------|-------------------|
-------------------|-------------------|-------------------|-------------------|-------------------|
--0----------------|--L----------------|--0----------------|--L----------------|--0----------------|
--0----------------|--L----------------|--0----------------|--L----------------|--0----------------|


  W                   W                   W                   W                   W                 
-------------------|-------------------|-------------------|-------------------|-------------------|
-------------------|-------------------|-------------------|-------------------|-------------------|
-------------------|-------------------|-------------------|-------------------|-------------------|
-------------------|-------------------|-------------------|-------------------|-------------------|
--L----------------|--5----------------|--L----------------|--5----------------|--L----------------|
--L----------------|--5----------------|--L----------------|--5----------------|--L----------------|


  W                   W                   W                   W                 
-------------------|-------------------|-------------------|-------------------|
-------------------|-------------------|-------------------|-------------------|
-------------------|-------------------|-------------------|-------------------|
-------------------|-------------------|-------------------|-------------------|
--5----------------|--L----------------|--5----------------|--L----------------|
--5----------------|--L----------------|--5----------------|--L----------------|


  E  E  E  E  E  E  E  E                                     E  E  E  E  E  E  E  E               
--------------------------|-------------------|-----|-----|--------------------------|-----------|
--------------------------|-------------------|-----|-----|--------------------------|-----------|
--------------------------|-------------------|-----|-----|--------------------------|-----------|
--------------------------|-------------------|-----|-----|--------------------------|-----------|
--x--x--x--x--x--x--x--x--|-------------------|-----|-----|--x--x--x--x--x--x--x--x--|-----------|
--x--x--x--x--x--x--x--x--|-------------------|-----|-----|--x--x--x--x--x--x--x--x--|-----------|


                                  E  E  E  E  E  E  E  E                                           
-----------|-------------------|--------------------------|-------------------|-------------------|
-----------|-------------------|--------------------------|-------------------|-------------------|
-----------|-------------------|--------------------------|-------------------|-------------------|
-----------|-------------------|--x--x--x--x--x--x--x--x--|-------------------|-------------------|
-----------|-------------------|--x--x--x--x--x--x--x--x--|-------------------|-------------------|
-----------|-------------------|--------------------------|-------------------|-------------------|


                      E  E  E  E  E  E  E  E                                           
-------------------|--------------------------|-------------------|-------------------|
-------------------|--------------------------|-------------------|-------------------|
-------------------|--------------------------|-------------------|-------------------|
-------------------|--x--x--x--x--x--x--x--x--|-------------------|-------------------|
-------------------|--x--x--x--x--x--x--x--x--|-------------------|-------------------|
-------------------|--------------------------|-------------------|-------------------|


                    Repeat
--------------------||
--------------------||
-------------------*||
-------------------*||
--------------------||
--------------------||




Duration Legend
---------------
W - whole
H - half
Q - quarter
. - note dotted



Tablature Legend
----------------
L - tied note
x - dead note



Guitar 2

      Q     Q     Q     Q        Q     Q     Q     Q          Q     Q     Q     Q     
E||--17----17----17----17----|--17----17----17----17----||---17----17----17----17----|
B||--------------------------|--------------------------||---------------------------|
G||--------------------------|--------------------------||*--------------------------|
D||--------------------------|--------------------------||*--------------------------|
A||--------------------------|--------------------------||---------------------------|
E||--------------------------|--------------------------||---------------------------|


   Q     Q     Q     Q        Q     Q     Q     Q        Q     Q     Q     Q     
--17----17----17----17----|--17----17----17----17----|--17----17----17----17----|
--------------------------|--------------------------|--------------------------|
--------------------------|--------------------------|--------------------------|
--------------------------|--------------------------|--------------------------|
--------------------------|--------------------------|--------------------------|
--------------------------|--------------------------|--------------------------|


   Q     Q     Q     Q        Q     Q     Q     Q        Q     Q     Q     Q       H         H         
--17----17----17----17----|--17----17----17----17----|--17----17----17----17----|-----------14--------|
--------------------------|--------------------------|--------------------------|---------------------|
--------------------------|--------------------------|--------------------------|---------------------|
--------------------------|--------------------------|--------------------------|---------------------|
--------------------------|--------------------------|--------------------------|---------------------|
--------------------------|--------------------------|--------------------------|---------------------|


   W                   H         H            W                   H         H         
--13----------------|-----------17--------|--16----------------|-----------14--------|
--------------------|---------------------|--------------------|---------------------|
--------------------|---------------------|--------------------|---------------------|
--------------------|---------------------|--------------------|---------------------|
--------------------|---------------------|--------------------|---------------------|
--------------------|---------------------|--------------------|---------------------|


   W                   H         H            W                   H         H         
--13----------------|-----------17--------|--16----------------|-----------19--------|
--------------------|---------------------|--------------------|---------------------|
--------------------|---------------------|--------------------|---------------------|
--------------------|---------------------|--------------------|---------------------|
--------------------|---------------------|--------------------|---------------------|
--------------------|---------------------|--------------------|---------------------|


   W                   H         H            W                   H         H         
--18----------------|-----------22--------|--21----------------|-----------19--------|
--------------------|---------------------|--------------------|---------------------|
--------------------|---------------------|--------------------|---------------------|
--------------------|---------------------|--------------------|---------------------|
--------------------|---------------------|--------------------|---------------------|
--------------------|---------------------|--------------------|---------------------|


   W                   H         H            W                   H         H         
--18----------------|-----------22--------|--21----------------|---------------------|
--------------------|---------------------|--------------------|---------------------|
--------------------|---------------------|--------------------|-----------11--------|
--------------------|---------------------|--------------------|--9------------------|
--------------------|---------------------|--------------------|---------------------|
--------------------|---------------------|--------------------|---------------------|


   H         H           H        H           H        H           H         H         
----------------------|--------------------|--------------------|---------------------|
----------------------|--------------------|--------------------|---------------------|
--10------------------|--9-----------------|--------------------|-----------11--------|
------------11--------|-----------8--------|--9-----------------|--9------------------|
----------------------|--------------------|-----------9--------|---------------------|
----------------------|--------------------|--------------------|---------------------|


   H         H           H        H           W                    H         H         
----------------------|--------------------|-------------------|----------------------|
----------------------|--------------------|-------------------|----------------------|
--10------------------|--9-----------------|-------------------|------------16--------|
------------11--------|-----------8--------|--9----------------|--14------------------|
----------------------|--------------------|-------------------|----------------------|
----------------------|--------------------|-------------------|----------------------|


   H         H            H         H            H         H            H         H         
----------------------|----------------------|----------------------|----------------------|
----------------------|----------------------|----------------------|----------------------|
--15------------------|--14------------------|----------------------|------------16--------|
------------16--------|------------13--------|--14------------------|--14------------------|
----------------------|----------------------|------------14--------|----------------------|
----------------------|----------------------|----------------------|----------------------|


   H         H            H         H            W                 Repeat
----------------------|----------------------|---------------------||
----------------------|----------------------|---------------------||
--15------------------|--14------------------|--------------------*||
------------16--------|------------13--------|--14----------------*||
----------------------|----------------------|---------------------||
----------------------|----------------------|---------------------||




Duration Legend
---------------
W - whole
H - half
Q - quarter
E - 8th
S - 16th
T - 32nd
X - 64th
. - note dotted
|-n-|  - n-tuplets


Tablature Legend
----------------
L - tied note
        
Comments

No comments yet