Gametabs
Home
Tabs
Random

The Decisive Battle

Average rating: 5.000

6 ratings

Composer:

Tabber:

Style:

Instrument:

Created: August 13, 2012 at 12:00 AM

            The Decisive Battle
Final Fantasy V
Composed by Nobuo Uematsu
Arranged by William Geesdorf


     Q.     Q.     Q.     Q.        H.           Q.     E.  E.   
E||---------5-------------1------|--0---------------------------|
B||---------5------4------2------|--1---------------------------|
G||---------5------3------1------|--2---------------------------|
D||----------------5-------------|----------------------2---2---|
A||--0---------------------------|------------------------------|
E||------------------------------|------------------------------|


                                              ^             
  Q.     Q.     Q.     Q.        H.           H.            
---------5-------------1------|--0-------------------------|
---------5------4------2------|--1------------3------------|
---------5------3------1------|--2------------3------------|
----------------5-------------|---------------5------------|
--0---------------------------|---------------5------------|
------------------------------|---------------3------------|


  E  S E  S E  S E  S E  S E  S E  S E  S    E  S E  S E  S E  S E  S E  S E  S E  S  
------------------------------------------|------------------------------------------|
------------------------------------------|------------------------------------------|
------------------------------------------|------------------------------------------|
------------------------------------------|------------------------------------------|
------------------------------------------|------------------------------------------|
--3--3-3--3-3--3-3--3-3--3-3--3-3--3-3--3-|--3--3-3--3-3--3-3--3-3--3-3--3-3--3-3--3-|


    E  S E  S E  S E  S E  S E  S E  S S  S S  
|---------------------------------------------|
|-------------3---------2---------------------|
|*------------3---------2---------0-----------|
|*------------5----5------------------------2-|
|---------------------1----------------4h-5---|
|---3--3-3--3----3---------3-3--3----3--------|


  E  S E  S E  S E  S E  S E  S S S  S S S  S    
------------1---------0------------------------||
------------3---------2------------------------||
------------0----0--------------0-------------*||
---------------------------------------2------*||
--------------------1-------------4h-5---5p-4--||
--3--3-3--3----3---------3-3--3----------------||


   E  S E  S  E  S  E   S E  S E  S  E  S S   S S  
--------------------------------------------------|
--------------8-----------7-----------------------|
*-------------8-----------7-----------------------|
*------------10----10---------------10----------7-|
------------------------------------------9h-10---|
---8--8-8--8-----8-----11----8-8--8-----8---------|


  E  S E  S  E  S  E   S  E  S E  S  S S   S S  S  S    
------------------------------------------------------||
------------11-----------10---------------------------||
------------12-----------11--------------------------*||
------------10----10----------------10-------7-------*||
---------------------------------------9h-10---10p-9--||
--8--8-8--8-----8-----11-----8-8--8-------------------||


  ^   ^       v ^ v ^       ^ v ^ v ^ v    ^   ^       v ^ v ^       ^ v ^ v ^ v  
  E.  E.  E.  S S S E.  E.  S S S S S S    E.  E.  E.  S S S E.  E.  S S S S S S  
----------------------------------------|----------------------------------------|
----------------------------2-2-2-2-2-2-|--3---3-------3-3-3-3-------2-2-2-2-2-2-|
--7---7-------7-7-7-7-------1-1-1-1-1-1-|--2---2-------2-2-2-2-------3-3-3-3-3-3-|
--7---7-------7-7-7-7-------3-3-3-3-3-3-|--4---4-------4-4-4-4-------3-3-3-3-3-3-|
--9---9-------9-9-9-9-------1-1-1-1-1-1-|--2---2-------2-2-2-2-------------------|
--8---8-------8-8-8-8-------------------|----------------------------1-1-1-1-1-1-|


  E  E  E  E  E  E  E  E     E  E  E  E  E  E  E  E       E  E  E  E  E  E  E  E   
--------------------------|--------------------------||---------------------------|
--1-----------------------|--------------------------||---------------------------|
--1--------0-----------0--|-----------0-----------0--||*-----9--------9-----------|
--2--0--3-----2--0--3-----|--2--0--3-----2--0--3-----||*-----9--------9-----------|
--------------------------|--------------------------||---------------------------|
--0-----------------------|--------------------------||---0-----0--0-----0--0--0--|


  v ^ v     v ^ v     v ^ v                          v ^  
  S S E  E  S S E  E  S S E     E  E  E  E  E  E  E  S S  
-----------------------------|---------------------------|
-----------------------------|---------------------------|
-----------------------------|-----9--------9------------|
--8-8-8-----8-8-8-----8-8-8--|-----9--------9--------8-8-|
--8-8-8-----8-8-8-----8-8-8--|-----------------------8-8-|
--0-0-0--0--0-0-0--0--0-0-0--|--0-----0--0-----0--0--0-0-|


  v ^ v     v ^ v ^ v  ^ v ^                                                            
  S S E  E  S S S S E  S S E        E  E  E  E  E  E  E  E     E  E  E  E  E  E  E  E   
-------------------------------||---------------------------|--------------------------|
-------------------------------||---------------------------|--------------0-----------|
------------------------------*||*--------------------------|--0-----------0-----------|
--8-8-8-----8-8-8-8-8--8-8-8--*||*--2-----------4-----------|--2-----------------------|
--8-8-8-----8-8-8-8-8--8-8-8---||---2-----------5-----------|--------------------------|
--0-0-0--0--0-0-0-0-0--0-0-0---||------0--0--0-----0--0--0--|-----0--0--0-----0--0--0--|


  E  E  E  E  E  E  E  E     E  E  E  E  E  E  E  E     E  E  E  E  E  E  E  E   
--------------------------|--------------------------|--------------------------|
--------------------------|--3-----------2-----------|--0-----------------------|
--3-----------------------|--4-----------3-----------|--0-----------0-----------|
--4-----------4-----------|--------------------------|--------------2-----------|
--------------4-----------|--------------------------|--------------------------|
-----0--0--0-----0--0--0--|-----0--0--0-----0--0--0--|-----0--0--0-----0--0--0--|


  E  E  E  E  E  E  E  E     E  E  E  E  E  E  E  E     E  E  E  E  E  E  E  E   
--------------------------|--------------------------|--------------------------|
--5-----------3-----------|--2-----------------------|--0-----------------------|
--4-----------4-----------|--3-----------3-----------|--0-----------------------|
--------------------------|--------------4-----------|--------------------------|
--------------------------|--------------------------|--------------------------|
-----0--0--0-----0--0--0--|-----0--0--0-----0--0--0--|-----0--0--0--0--0--0--0--|


  E  E  E  E  E  E  E   E     E  E   E  E  E   E  E  E     E  E  E  E  E  E  E  E   
---------------------------|------------------10--9-----|--------------------------|
---------------------------|--------10--9-----10--9-----|--------------------------|
-----0--------5--4-----10--|--9------9--8---------------|--------------1-----------|
-----0--------5--4-----10--|--9-------------------------|--4-----------2-----------|
---------------------------|----------------------------|--4-----------------------|
--0-----0--0--------0------|-----0---------0---------0--|-----2--2--2-----2--2--2--|


  E  E  E  E  E  E  E  E     E  E  E  E  E  E  E  E     E  E  E  E  E  E  E  E   
--------------------------|--------------------------|--0-----------------------|
--------------2-----------|--1-----------------------|--2-----------4-----------|
--2-----------2-----------|--1-----------1-----------|--------------5-----------|
--4-----------------------|--------------1-----------|--------------------------|
--------------------------|--------------------------|--------------------------|
-----2--2--2-----2--2--2--|-----2--2--2-----2--2--2--|-----2--2--2-----2--2--2--|


  E  E  E  E  E  E  E  E     E  E  E  E  E  E  E  E     E  E  E  E  E  E  E  E   
--------------------------|--2-----------0-----------|--------------------------|
--2-----------------------|--2-----------2-----------|--4-----------------------|
--2-----------2-----------|--------------------------|--5-----------------------|
--------------4-----------|--------------------------|--------------------------|
--------------------------|--------------------------|--------------------------|
-----2--2--2-----2--2--2--|-----2--2--2-----2--2--2--|-----2--2--2--2--2--2--2--|


  E  E  E  E  E  E  E  E     Q    E  E  Q    E  E     E  E  Q.     E  E  E   
--------------------------|------------------------|------------------------|
--------------------------|-------0-------------0--|-----5--4------------4--|
--------------------------|--6-------6--9----8-----|--6------------4--6-----|
--------------------------|-------------7----------|------------------------|
--------------------4--2--|--0-------0----------6--|--7-----0---------0-----|
--2--2--2--2--2--4--------|------------------------|-----4------------------|


  E  E  E  E  E  E  E  E     E  E  E  E  E  E  E  E     Q    E  E  Q    E  E   
--------------------------|--------------------------|------------------------|
--5-----4--5--7-----5--4--|--5-----------------------|-------0-------------0--|
--6-----6--6--6-----6--6--|--6-----6-----6-----4-----|--6-------6--9----8-----|
--------------------------|--------6-----6-----4-----|-------------7----------|
--4--4--------4--4--------|--4--4--------------4-----|--0-------0----------6--|
-----------4-----------4--|-----------3-----4-----7--|------------------------|

                         1st Ending
  E  E  Q.     E  E  E     E  E  E  E  E  E  E  E     E  E  E  E  E  E  E  E   
------------------------|--0-----------------------|-----------0--4-----3-----|
-----5--4------0--2--4--|-----1--------------------|--------1-----------------|
--6---------------------|--------1-----------------|-----1--------------------|
------------------------|-----------3-----2--------|-----------3-----2--------|
--7-----0---------0-----|--------------------3-----|--------------------3-----|
-----4------------------|--1--------1--------1--4--|--1--------------------4--|


  E  E  E  E  E  E  E  E     E  E  E  E  E  E  E  E     E  E  E  E  E  E  E  E   
--2-----------------------|--------------------------|--0-----------------------|
-----3--------------------|--------------------1--3--|-----1--------------------|
--------3--2-----------3--|--2--3--0--------3--------|--------1-----------------|
-----------5-----4--0-----|-----------5-----4--0-----|-----------3-----2--------|
-----------------------1--|-----------------------1--|--------------------3-----|
--3--------3--------3-----|--3-----------------------|--1--------1--------1--4--|


  E  E  E  E  E  E  E  E     E  E  E  E  E  E  E  E     Q    Q    Q    Q     
-----------0--4-----3-----|--2-----0--2--4-----------|--2----L----L----L----|
--------1-----------------|-----3--------------5-----|-------2----2---------|
-----1--------------------|--------------------------|-------4----3---------|
-----------3-----2--------|--------------------------|----------------------|
--------------------3-----|--2--2-----2--4--4-----4--|----------------------|
--1--------------------4--|--------------------------|--2--------------2----|


  E  T S. E  T S. E  T S. E  T S.    E  T S. E  T S. E  T S. E  T S.  
------------------1---------------|--2---------------1-------5-------|
------------------0---------------|--0---------------0-------3-------|
--4-------------------------------|----------------------------------|
--3-------------------------------|----------------------------------|
-------2--2----2-------2--2----2--|-------2--2----2-------2-------2--|
----------------------------------|----------------------------------|


  E  T S. E  T S. E  T S. E  T S.    E  T S. E  T S. E  T S. E  T S.  
--4-------------------------------|--2---------------1---------------|
--3---------------2-------3-------|--0---------------0---------------|
------------------0-------0-------|----------------------------------|
----------------------------------|----------------------------------|
-------2--2----2-------2-------2--|-------2--2----2-------2--2----2--|
----------------------------------|----------------------------------|


  E  T S. E  T S. E  T S. E  T S.    E  T S. E  T S. E  T S. E  T S.  
------------------1---------------|--2---------------1-------5-------|
------------------0---------------|--0---------------0-------3-------|
--4-------------------------------|----------------------------------|
--3-------------------------------|----------------------------------|
-------2--2----2-------2--2----2--|-------2--2----2-------2-------2--|
----------------------------------|----------------------------------|


  E  T S. E  T S. E  T S. E  T S.    E  T S. E  T S. E  T S. E  T S.  
--4-------------------------------|--2-------------------------------|
--3---------------2-------3-------|--0-------------------------------|
------------------0-------0-------|----------------------------------|
----------------------------------|----------------------------------|
-------2--2----2-------2-------2--|-------2--2----2--2----2--2----2--|
----------------------------------|----------------------------------|


  E  T S. E  T S. E  T S. E  T S.    E  T S. E  T S. E  T S. E  T S.  
------------------1---------------|--2---------------1-------5-------|
------------------0---------------|--0---------------0-------3-------|
--4-------------------------------|----------------------------------|
--3-------------------------------|----------------------------------|
-------2--2----2-------2--2----2--|-------2--2----2-------2-------2--|
----------------------------------|----------------------------------|


  E  T S. E  T S. E  T S. E  T S.    E  T S. E  T S. E  T S. E  T S.  
--4-------------------------------|--2---------------1---------------|
--3---------------2-------3-------|--0---------------0---------------|
------------------0-------0-------|----------------------------------|
----------------------------------|----------------------------------|
-------2--2----2-------2-------2--|-------2--2----2-------2--2----2--|
----------------------------------|----------------------------------|


  E  T S. E  T S. E  T S. E  T S.    E  T S. E  T S. E  T S. E  T S.  
------------------1---------------|--2---------------1-------5-------|
------------------0---------------|--0---------------0-------3-------|
--4-------------------------------|----------------------------------|
--3-------------------------------|----------------------------------|
-------2--2----2-------2--2----2--|-------2--2----2-------2-------2--|
----------------------------------|----------------------------------|


  E  T S. E  T S. E  T S. E  T S.    E  T S. E  T S. E  T S. E  T S.  
--4-------------------------------|--2-------------------------------|
--3---------------2-------3-------|--0-------------------------------|
------------------0-------0-------|----------------------------------|
----------------------------------|----------------------------------|
-------2--2----2-------2-------2--|-------2--2----2--2----2--2----2--|
----------------------------------|----------------------------------|


                                                          |--3--|                        
  H        H           H.           Q       H.            E  E  E     W                  
--------------------|--------------------|-------------------------|--------------------|
--------------------|--------------------|-------------------------|--------------------|
--------------------|--------------------|--1~---------------------|--------------------|
--5--------4--------|--3------------0----|-------------------0--3--|--------------------|
--4--------3--------|--2-----------------|----------------2--------|--------------------|
--3--------2--------|--1-----------------|-------------------------|--4~----------------|


                                           |----3----|    |----3----|     
  H        H           W                   Q    Q    Q    Q    Q    Q     
--------------------|-------------------|--------------------------------|
--------------------|-------------------|--------------------------------|
--------------------|-------------------|--------------------------------|
--3--------2--------|--1----------------|--------------------------------|
--2--------1--------|--0----------------|-----------------0----0----2----|
--1--------0--------|-------------------|--2----2----4-------------------|


  |----3----|    |---3--|   |---3--|     2nd Ending                           
  Q    Q    Q    E   E  E   E  E   E       E  E  E  E  E  E  E  E   
---------------------------------------||--0-----------------------|
---------------------------------------||-----1--------------------|
--------------------------------------*||--------1-----------------|
------------1----4p--1----------------*||-----------3-----2--------|
--3----3----------------3p--0----------||--------------------3-----|
-------------------------------2h--3---||--1--------1--------1--4--|


  E  E  E  E  E  E  E  E     E  E  E  E  E  E  E  E     E  E  E  E  E  E  E  E   
-----------0--4-----3-----|--2-----------------------|--------------------------|
--------1-----------------|-----3--------------------|--------------------1--3--|
-----1--------------------|--------3--2-----------3--|--2--3--0--------3--------|
-----------3-----2--------|-----------5-----4--0-----|-----------5-----4--0-----|
--------------------3-----|-----------------------1--|-----------------------1--|
--1--------------------4--|--3--------3--------3-----|--3-----------------------|


                                                          ^          ^          
  E  E  E  E  E  E  E  E     E  E  E  E  S  E.   Q        Q    E  E  Q    Q     
--0-----------------------|-----------0--3s-4~---3~----|--2----0--2--4----0----|
-----1--------------------|--------1-------------------|--3----------5---------|
--------1-----------------|-----1----------------------|--4----------6---------|
-----------3-----2--------|----------------------------|--4----------6---------|
--------------------3-----|----------------------------|--2----------4---------|
--1--------1--------1--4--|--1-------------------------|-----------------------|


        ^    ^                              
  E  E  Q    H           W                  
--2-----2----2--------|--L----------------||
--------2----2--------|--L----------------||
--------4----3--------|--L----------------||
--------4----4--------|--L----------------||
--------4----4--------|--L----------------||
--------2----2--------|--L----------------||




Duration Legend
---------------
W - whole
H - half
Q - quarter
E - 8th
S - 16th
T - 32nd
X - 64th
. - note dotted
|-n-|  - n-tuplets


Tablature Legend
----------------
L - tied note
h - hammer on
p - pull off
s - legato slide
~ - vibrato
^ - brush up
v - brush down
        
Comments

@JordanVS (August 13, 2012 at 5:04 PM)

Great job on this one!


@Ennea (August 13, 2012 at 7:54 PM)

You don't do the realguitar mp3 thingy anymore ?

Sadly I've never played FFV - but that tab makes me want to. Great job as always!


@Lemoncobbler (August 13, 2012 at 9:05 PM)

love your arrangements man, this ones awesome