Gametabs
Home
Tabs
Random

Tenderness in the Air

Average rating: 5.000

4 ratings

Composer:

Tabber:

Style:

Instrument:

Created: May 15, 2010 at 12:00 AM

            Tenderness in the Air aka Town Theme
composed by Nobuo Uematsu
arranged by Arnold Morrison
tabbed by trickypat
TablEdited by trickypat
date edited: 2010, May 15th

standard tuning, no capo, bpm=81 (although slower bpm is recommended)

v1.00
Very hard tab to play. This tab is derived from Arnold Morrison's arrangement for piano. It's doable, 
but difficult. Also, I've taken many liberties in order to create this tab. I've added two midis, each
a part of the song, so you can listen how the tab should roughly sound.
Enjoy learning this!

Check http://www.youtube.com/watch?v=dEWxevMs0iE to listen to the real deal.


measure 1
    |       |       |       |          |       |       |       |          |       |       |       |         
E |-0--------------------------------||----8---7---8---5---8-------8----|-3-------1-------0----------------|
B |-1-------3-------1----------------|o------------5-----------8---6----|-3-------3-------1-------1--------|
G |---------1-------0-------1--------||5-------5-------5-------5--------|-----1---------------0------------|
D |-----2-------3-------2---3---0----||----5---------------7------------|-------------3---------------2----|
A |----------------------------------|o---------------------------------|----------------------------------|
E |----------------------------------||---------------------------------|----------------------------------|
 
measure 4
  |       |       |       |          |       |       |       |          |       |       |       |         
|-----1---0---1---3-------0---1----|-0--------------------------------|-----8---7---8---5---8-------8----|
|---------------------3------------|----------------------------------|-------------5-----------8---6----|
|-----------------------------0----|----------------------------------|-5-------5-------5-------5--------|
|-0-------0---3---0-------0--------|-------------2---------------3----|-----5---------------7------------|
|-----0---------------2------------|-3-------3-------3-------5--------|----------------------------------|
|----------------------------------|-----3---------------4------------|----------------------------------|
 
measure 7
  |       |       |       |          |       |       |       |          |       |       |       |         
|-3-------1-------0-------------0--|-1-----------8---8-------------0--|-1-----------8---8----------------|
|-3-------3-------1-------1---3----|---------3---6---10---------------|---------3---6---9----------------|
|-----1---------------0------------|-----2-----------------------7----|-----1----------------------------|
|-------------3---------------2----|----------------------------------|----------------------------------|
|----------------------------------|-3--------------------------------|-3--------------------------------|
|----------------------------------|----------------------------------|----------------------------------|
 
measure 10
  |       |       |       |          |       |       |       |          |       |       |       |         
|-0--------------------------------|-----3-------0--------------------|-0--------------------------------|
|---------3-------1----------------|---------6-------3---1---0---1----|-----------------0----------------|
|-2-------2-------0-------1--------|-----------------0----------------|-----------------1----------------|
|-5-------3-------3-------3--------|-5-----------2--------------------|-------------2--------------------|
|-------------------------5--------|-3-------3------------------------|-2-------2------------------------|
|----------------------------------|-----3----------------------------|-----4----------------------------|
 
measure 13
  |       |       |       |          |       |       |       |          |       |       |       |         
|-----0----------------------------|----------------------------------|----------------------------------|
|---------3---1---0----------------|-3--------------------------------|-----------------------------1----|
|---------------------2---1---2----|-------------------------0--------|-----------------0-------0--------|
|-2-----------2--------------------|-3---------------3-----------3----|-2-----------3-------2------------|
|-1-------1-------0---4-------0----|-----0---2---3---5----------------|-3-----------2---0----------------|
|-----3-------------------0--------|-----------------4----------------|-----------------------------3----|
 
measure 16
  |       |       |       |          |       |       |       |          |       |       |       |         
|-0--------------------------------|-1--------------------------------|-0--------------------------------|
|-1---------------0----------------|----------------------------------|-----------------0----------------|
|-2-----------------------1---2----|-----------------2-------1---2----|-----------------0----------------|
|-----------------0----------------|-0-------0---3--------------------|-------------0---1----------------|
|-0--------------------------------|-----0----------------------------|---------2------------------------|
|-----------------1----------------|----------------------------------|-3---1----------------------------|
 
measure 19
  |       |       |       |          |       |       |       |          |       |       |       |         
|----------------------------------|----------------------------------|----------------------------------|
|-1---------------1----------------|-1---------------1----------------|----------------------------------|
|----------------------------------|----------------------------------|-0---------------2----------------|
|-2-----------2---3-----------3----|-2-----------2---0-----------0----|-2-----------2---3-----------3----|
|---------3---------------3--------|---------3------------------------|-3-------3-------3-------3--------|
|-----3---------------1------------|-----3---------------1---4--------|-----3---------------1------------|
 
measure 22
  |       |       |       |         
|---------------------------------||
|---------------------------------o|
|-0---------------1---------------||
|-2-----------2---0-----------0---||
|-3-------3-------3---------------o|
|-----3---------------1---4-------||

Created with TablEdit http://www.tabledit.com/

        
Comments

@GROMABgladius (November 01, 2012 at 9:02 PM)

LOVE THIS SONG. Thank you so much for arranging this! While it is a bit difficult for me to play, it's very well-put-together. :)


@musenji (October 28, 2014 at 2:59 AM)

Pretty tough. Just how tough I don't really know, it's kinda funky fingering-wise. But very good.


@licensetobill (November 27, 2014 at 7:20 PM)

had a lot of fun learning this, thanks