Gametabs
Home
Tabs
Random

Searching the Light

Average rating: No ratings

Composer:

Tabber:

Style:

Instrument:

Created: May 25, 2012 at 12:00 AM

                          Final Fantasy V - Searching the Light BASS TAB
                        Composed by Nobuo Uematsu

                 Tabbed by auriplane ([email protected])


Four-string bass, standard tuning.  Rest for one measure at the beginning.


G |----------------|--------|----------------|
D |----------------|--------|--------------5-|
A |5---5---5---5---|8---8---|--8---8---8-----|
E |--5-------5-----|--8---8-|6---6---6---8---|
                                     
                                     
G |----------------|--------|----------------|
D |----------------|--------|----------------|
A |5---5---5---5---|8---8---|6---6---6---6---|
E |--5-------5-----|--8---8-|--6---6---6---6-|


G |----------------|----------------|----------------|----------------|
D |----------------|----------------|----------------|----------------|
A |5---5---5---5---|8---8---8---8---|6---6---6---6---|--9---9---9---9-|
E |--5---5---5---5-|--8---8---8---8-|--6---6---6---6-|7---7---7---7---|


G |----------------|----------------|----------------|
D |----------------|----------------|--------------5-|
A |6---6---6---6---|--9---9---9---9-|--8---8---8-----|
E |--6---6---6---6-|7---7---7---7---|6---6---6---8---|

        Repeat back to the beginning (without the rest).


        
Comments

No comments yet