Gametabs
Home
Tabs
Random

Sealed Book

Average rating: 5.000

1 ratings

Composer:

Tabber:

Style:

Instrument:

Created: August 02, 2009 at 12:00 AM

                           Final Fantasy V - The Sealed Book BASS TAB
                          Song by Nobuo Uematsu

                 Tabbed by auriplane ([email protected])


Five-string bass, standard tuning.  

G |-------------------------------|
D |-------------------------------| 
A |-------------------------------|
E |-------------------------------|
B |3---------------3--------------|

G |-------------------------------|
D |-------------------------------| 
A |-------------------------------|
E |-------------------------------|
B |3-------3-------3-------3------|
                                   
G |-------------------------------|
D |-------------------------------|
A |-------------------------------|
E |-------------------------------|
B |5-------5-------5-------5------|
                                   
G |-------------------------------|
D |-------------------------------|
A |-------------------------------|
E |-------------------------------|
B |3-------3-------3-------3------|

        
Comments

No comments yet