Gametabs
Home
Tabs
Random

Prelude to Empty Skies

Average rating: 5.000

3 ratings

Composer:

Tabber:

Style:

Instrument:

Created: January 07, 2015 at 12:00 AM

              The Prelude Of Empty Skies                            


                         S S Q.     S S Q.        S S Q.     S S Q.      
E||-------------------|------------------------|------------------------|
B||-------------------|------------------------|------------------------|
G||-------------------|------------------------|------------------------|
D||-------------------|--0-0--------0-0--------|--0-0--------0-0--------|
A||-------------------|------------------------|------------------------|
D||-------------------|--0-0--------0-0--------|--0-0--------0-0--------|


  S S Q.     S S Q.        S S Q.     S S Q.        S S Q.      S S Q.      
------------------------|------------------------|--6---L------11---L------|
------------------------|------------------------|--4---L-------9---L------|
------------------------|------------------------|--7---L------12---L------|
--0-0--------0-0--------|--0-0--------0-0--------|--5---L------10---L------|
------------------------|------------------------|-------------------------|
--0-0--------0-0--------|--0-0--------0-0--------|--0-0---------0-0--------|


  S S Q.     S S Q.        S S Q.     S S Q.         S S Q.     S S Q.      
--8--------------L------|------------------------|-------------------------|
--6--------------L------|--8---L------6---L------|---9--------------L------|
--9--------------L------|--5---L------3---L------|---6--------------L------|
--7--------------L------|--9---L------7---L------|--10--------------L------|
------------------------|--7---L------5---L------|---8--------------L------|
--0-0--------0-0--------|--0-0--------0-0--------|---0-0--------0-0--------|


  S S Q.      S S Q.        S S Q.     S S Q.        S S Q.     S S Q.      
--6---L------11---L------|--8--------------L------|------------------------|
--4---L-------9---L------|--6--------------L------|--8---L------6---L------|
--7---L------12---L------|--9--------------L------|--5---L------3---L------|
--5---L------10---L------|--7--------------L------|--9---L------7---L------|
-------------------------|------------------------|--7---L------5---L------|
--0-0---------0-0--------|--0-0--------0-0--------|--0-0--------0-0--------|


   S S Q.     S S Q.        S S E  E  E  S S E  E  E   
-------------------------|--3---L-----3--2-L----5-----|
---9--------------L------|--3---L--3---------3--6--6--|
---6--------------L------|--2---L---------------------|
--10--------------L------|----------------------------|
---8--------------L------|----------------------------|
---0-0--------0-0--------|--0-0----------0-0----------|


  S S S T T Q    S S E  S  S  E      S S Q.     S S Q.      
--8---L-7-6-5--------L-----------|---9--------------L------|
--8---L-----------------8-10-11--|--10--------------L------|
--8---L--------------------------|---9--------------L------|
---------------------------------|-------------------------|
---------------------------------|-------------------------|
--0-0------------0-0-------------|---0-0--------0-0--------|


  S S Q.     S S Q.        S S E  E  E  S S E  E  E   
--8--------------L------|--3---L-----3--2-L----5-----|
--8--------------L------|--3---L--3---------3--6--6--|
--9--------------L------|--2---L---------------------|
------------------------|----------------------------|
------------------------|----------------------------|
--0-0--------0-0--------|--0-0----------0-0----------|


  S S S T T Q    S S E  S  S  E      S S S  S Q    S S E   E  E   
--8---L-7-6-5--------L-----------|---9---L--------------------9--|
--8---L-----------------8-10-11--|--10---L-10-------------10-----|
--8---L--------------------------|---9---L----9--------L---------|
---------------------------------|-------------------------------|
---------------------------------|-------------------------------|
--0-0------------0-0-------------|---0-0-----------0-0-----------|


   S S S  S  Q    S S E   E  E     S S Q.     S S Q.      
--12---L------------------------|--6--------------L------|
--13---L-13---------------------|--8--------------L------|
--12---L----12--------L--10--9--|--7--------------L------|
--------------------------------|------------------------|
--------------------------------|------------------------|
---0-0------------0-0-----------|--0-0--------0-0--------|


  S S Q.     S S Q.        S S E  E  E  S S E  E  E   
--5--------------L------|--3---L-----3--2-L----5-----|
--8--------------L------|--3---L--3---------3--6--6--|
--7--------------L------|--2---L---------------------|
------------------------|----------------------------|
------------------------|----------------------------|
--0-0--------0-0--------|--0-0----------0-0----------|


  S S S T T Q    S S E  S  S  E      S S Q.     S S Q.      
--8---L-7-6-5--------L-----------|---9--------------L------|
--8---L-----------------8-10-11--|--10--------------L------|
--8---L--------------------------|---9--------------L------|
---------------------------------|-------------------------|
---------------------------------|-------------------------|
--0-0------------0-0-------------|---0-0--------0-0--------|


  S S Q.     S S Q.        S S E  E  E  S S E  E  E   
--8--------------L------|--3---L-----3--2-L----5-----|
--8--------------L------|--3---L--3---------3--6--6--|
--9--------------L------|--2---L---------------------|
------------------------|----------------------------|
------------------------|----------------------------|
--0-0--------0-0--------|--0-0----------0-0----------|


  S S S T T Q    S S E  S  S  E      S S S  S Q    S S E   E  E   
--8---L-7-6-5--------L-----------|---9---L--------------------9--|
--8---L-----------------8-10-11--|--10---L-10-------------10-----|
--8---L--------------------------|---9---L----9--------L---------|
---------------------------------|-------------------------------|
---------------------------------|-------------------------------|
--0-0------------0-0-------------|---0-0-----------0-0-----------|


   S S S  S  Q    S S E   E  E     S S Q.     S S Q.      
--12---L------------------------|--6--------------L------|
--13---L-13---------------------|--8--------------L------|
--12---L----12--------L--10--9--|--7--------------L------|
--------------------------------|------------------------|
--------------------------------|------------------------|
---0-0------------0-0-----------|--0-0--------0-0--------|


  S S Q.     S S Q.         S S  E   Q     S S  E   Q     
--5--------------L------|--12----L--10----12----L--10----|
--8--------------L------|--10----L---8----10----L---8----|
--7--------------L------|--------------------------------|
------------------------|--------------------------------|
------------------------|--------------------------------|
--0-0--------0-0--------|---0-0------------0-0-----------|


  S S  E   E  E  S S Q.        S S E  E  S S S S S S S S S S  
--8-L-12--10--7--8---L------|--------------------------------|
--6-L-10---8--5--6---L------|--6-L-5-----5---5---5---5---5---|
----------------------------|--7-L-6-----6---6---6---6---6---|
----------------------------|--------------------------------|
----------------------------|--------------------------------|
--0-0------------0-0--------|--0-0-----------0-0-------------|


   S  S  E  E   S S  S S  S S  S S  S S     S S  E  Q     S S E  Q     
--12--L-11-----11---11---11---11---11---|--10----L--9----10---L--9----|
---9--L--8------8----8----8----8----8---|-----------------------------|
---9--L--8------8----8----8----8----8---|--10----L--9----10---L--9----|
----------------------------------------|---8----L--7-----8---L--7----|
----------------------------------------|-----------------------------|
---0--0--------------0-0----------------|---0-0-----------0-0---------|


  S S  E  E  E  S S Q.        S S Q.      S S Q.        S S Q.     S S Q.      
--7-L-10--9--6--7---L------|--6---L------11---L------|--8--------------L------|
---------------------------|--4---L-------9---L------|--6--------------L------|
--7-L-10--9--6--7---L------|--7---L------12---L------|--9--------------L------|
--5-L--8--7--4--5---L------|--5---L------10---L------|--7--------------L------|
---------------------------|-------------------------|------------------------|
--0-0-----------0-0--------|--0-0---------0-0--------|--0-0--------0-0--------|


  S S Q.     S S Q.         S S Q.     S S Q.        S S Q.      S S Q.      
------------------------|-------------------------|--6---L------11---L------|
--8---L------6---L------|---9--------------L------|--4---L-------9---L------|
--5---L------3---L------|---6--------------L------|--7---L------12---L------|
--9---L------7---L------|--10--------------L------|--5---L------10---L------|
--7---L------5---L------|---8--------------L------|-------------------------|
--0-0--------0-0--------|---0-0--------0-0--------|--0-0---------0-0--------|


  S S Q.     S S Q.        S S Q.     S S Q.         S S Q.     S S Q.      
--8--------------L------|------------------------|-------------------------|
--6--------------L------|--8---L------6---L------|---9--------------L------|
--9--------------L------|--5---L------3---L------|---6--------------L------|
--7--------------L------|--9---L------7---L------|--10--------------L------|
------------------------|--7---L------5---L------|---8--------------L------|
--0-0--------0-0--------|--0-0--------0-0--------|---0-0--------0-0--------|


  S S E  E  E  S S E  E  E     S S S T T Q    S S E  S  S  E   
--3---L-----3--2-L----5-----|--8---L-7-6-5--------L-----------|
--3---L--3---------3--6--6--|--8---L-----------------8-10-11--|
--2---L---------------------|--8---L--------------------------|
----------------------------|---------------------------------|
----------------------------|---------------------------------|
--0-0----------0-0----------|--0-0------------0-0-------------|


   S S Q.     S S Q.        S S Q.     S S Q.        S S E  E  E  S S E  E  E   
---9--------------L------|--8--------------L------|--3---L-----3--2-L----5-----|
--10--------------L------|--8--------------L------|--3---L--3---------3--6--6--|
---9--------------L------|--9--------------L------|--2---L---------------------|
-------------------------|------------------------|----------------------------|
-------------------------|------------------------|----------------------------|
---0-0--------0-0--------|--0-0--------0-0--------|--0-0----------0-0----------|


  S S S T T Q    S S E  S  S  E      S S S  S Q    S S E   E  E   
--8---L-7-6-5--------L-----------|---9---L--------------------9--|
--8---L-----------------8-10-11--|--10---L-10-------------10-----|
--8---L--------------------------|---9---L----9--------L---------|
---------------------------------|-------------------------------|
---------------------------------|-------------------------------|
--0-0------------0-0-------------|---0-0-----------0-0-----------|


   S S S  S  Q    S S E   E  E     S S Q.     S S Q.      
--12---L------------------------|--6--------------L------|
--13---L-13---------------------|--8--------------L------|
--12---L----12--------L--10--9--|--7--------------L------|
--------------------------------|------------------------|
--------------------------------|------------------------|
---0-0------------0-0-----------|--0-0--------0-0--------|


  S S Q.     S S Q.        S S E  E  E  S S E  E  E   
--5--------------L------|--3---L-----3--2-L----5-----|
--8--------------L------|--3---L--3---------3--6--6--|
--7--------------L------|--2---L---------------------|
------------------------|----------------------------|
------------------------|----------------------------|
--0-0--------0-0--------|--0-0----------0-0----------|


  S S S T T Q    S S E  S  S  E      S S Q.     S S Q.      
--8---L-7-6-5--------L-----------|---9--------------L------|
--8---L-----------------8-10-11--|--10--------------L------|
--8---L--------------------------|---9--------------L------|
---------------------------------|-------------------------|
---------------------------------|-------------------------|
--0-0------------0-0-------------|---0-0--------0-0--------|


  S S Q.     S S Q.        S S E  E  E  S S E  E  E   
--8--------------L------|--3---L-----3--2-L----5-----|
--8--------------L------|--3---L--3---------3--6--6--|
--9--------------L------|--2---L---------------------|
------------------------|----------------------------|
------------------------|----------------------------|
--0-0--------0-0--------|--0-0----------0-0----------|


  S S S T T Q    S S E  S  S  E      S S S  S Q    S S E   E  E   
--8---L-7-6-5--------L-----------|---9---L--------------------9--|
--8---L-----------------8-10-11--|--10---L-10-------------10-----|
--8---L--------------------------|---9---L----9--------L---------|
---------------------------------|-------------------------------|
---------------------------------|-------------------------------|
--0-0------------0-0-------------|---0-0-----------0-0-----------|


   S S S  S  Q    S S E   E  E     S S Q.     S S Q.      
--12---L------------------------|--6--------------L------|
--13---L-13---------------------|--8--------------L------|
--12---L----12--------L--10--9--|--7--------------L------|
--------------------------------|------------------------|
--------------------------------|------------------------|
---0-0------------0-0-----------|--0-0--------0-0--------|


  S S Q.     S S Q.         S S  E   Q     S S  E   Q     
--5--------------L------|--12----L--10----12----L--10----|
--8--------------L------|--10----L---8----10----L---8----|
--7--------------L------|--------------------------------|
------------------------|--------------------------------|
------------------------|--------------------------------|
--0-0--------0-0--------|---0-0------------0-0-----------|


  S S  E   E  E  S S Q.        S S E  E  S S S S S S S S S S  
--8-L-12--10--7--8---L------|--------------------------------|
--6-L-10---8--5--6---L------|--6-L-5-----5---5---5---5---5---|
----------------------------|--7-L-6-----6---6---6---6---6---|
----------------------------|--------------------------------|
----------------------------|--------------------------------|
--0-0------------0-0--------|--0-0-----------0-0-------------|


   S  S  E  E   S S  S S  S S  S S  S S     S S  E  Q     S S E  Q     
--12--L-11-----11---11---11---11---11---|--10----L--9----10---L--9----|
---9--L--8------8----8----8----8----8---|-----------------------------|
---9--L--8------8----8----8----8----8---|--10----L--9----10---L--9----|
----------------------------------------|---8----L--7-----8---L--7----|
----------------------------------------|-----------------------------|
---0--0--------------0-0----------------|---0-0-----------0-0---------|


  S S  E  E  E  S S Q.        S S Q.      S S Q.        S S Q.     S S Q.      
--7-L-10--9--6--7---L------|--6---L------11---L------|--8--------------L------|
---------------------------|--4---L-------9---L------|--6--------------L------|
--7-L-10--9--6--7---L------|--7---L------12---L------|--9--------------L------|
--5-L--8--7--4--5---L------|--5---L------10---L------|--7--------------L------|
---------------------------|-------------------------|------------------------|
--0-0-----------0-0--------|--0-0---------0-0--------|--0-0--------0-0--------|


  S S Q.     S S Q.         S S Q.     S S Q.        S S Q.      S S Q.      
------------------------|-------------------------|--6---L------11---L------|
--8---L------6---L------|---9--------------L------|--4---L-------9---L------|
--5---L------3---L------|---6--------------L------|--7---L------12---L------|
--9---L------7---L------|--10--------------L------|--5---L------10---L------|
--7---L------5---L------|---8--------------L------|-------------------------|
--0-0--------0-0--------|---0-0--------0-0--------|--0-0---------0-0--------|


  S S Q.     S S Q.        S S Q.     S S Q.         W                 
--8--------------L------|------------------------|--------------------|
--6--------------L------|--8---L------6---L------|---9----------------|
--9--------------L------|--5---L------3---L------|---6----------------|
--7--------------L------|--9---L------7---L------|--10----------------|
------------------------|--7---L------5---L------|---8----------------|
--0-0--------0-0--------|--0-0--------0-0--------|---0----------------|


-------------------||
-------------------||
-------------------||
-------------------||
-------------------||
-------------------||
        
Comments

No comments yet