Gametabs
Home
Tabs
Random

Nostalgia

Average rating: No ratings

Composer:

Tabber:

Style:

Instrument:

Created: December 16, 2011 at 12:00 AM

            Final Fantasy V - Nostalgia
Composed by Nobuo Uematsu
Tabbed by Hashel

Plz dl the GP5 file for chords and bass ^^


Melody

E |----||-------------13----15------------------|--10------------------------|
B |----||-------15-16---------------------------|----------------------------|
G |----||o---12---------------------------------|----------------------------|
D |----||o15------------------------------------|----------------------------|
A |----||---------------------------------------|----------------------------|
E |----||---------------------------------------|----------------------------|


--------------13----15------------------|--10------------------------|
--------15-16---------------------------|----------------------------|
-----12---------------------------------|----------------------------|
--15------------------------------------|----------------------------|
----------------------------------------|----------------------------|
----------------------------------------|----------------------------|


--------10------------------------------|
----------------------------------------|
--10-12-------------10-12---------------|
----------------------------------------|
----------------------------------------|
----------------------------------------|


--10------------------------------------|
----------------------------------------|
--------------------12-10---------------|
----------------------------------------|
----------------------------------------|
----------------------------------------|


----------------------------------------|-------------------|
----------------------------------------|-------------------|
--10----------12------------------------|-------------------|
-----13-12-13---------------------------|-------------------|
----------------------------------------|-------------------|
----------------------------------------|-------------------|


--------------13----15------------------|--10------------------------|
--------15-16---------------------------|----------------------------|
-----12---------------------------------|----------------------------|
--15------------------------------------|----------------------------|
----------------------------------------|----------------------------|
----------------------------------------|----------------------------|


--------------13----15------------------|--10------------------------|
--------15-16---------------------------|----------------------------|
-----12---------------------------------|----------------------------|
--15------------------------------------|----------------------------|
----------------------------------------|----------------------------|
----------------------------------------|----------------------------|


--------10------------------------------|
----------------------------------------|
--10-12-------------10-12---------------|
----------------------------------------|
----------------------------------------|
----------------------------------------|


--10------------------------------------|
----------------------------------------|
--------------------12-10---------------|
----------------------------------------|
----------------------------------------|
----------------------------------------|


----------------------------------------|-------------------|
----------------------------------------|-------------------|
--10----------12------------------------|-------------------|
-----13-12-13---------------------------|-------------------|
----------------------------------------|-------------------|
----------------------------------------|-------------------|


--13-11----11-10------------------------|----------------------------|
--------13-------13-11------------------|----------------------------|
-----------------------13---------------|--12------------------------|
----------------------------------------|----------------------------|
----------------------------------------|----------------------------|
----------------------------------------|----------------------------|


--------8-------------------------------|--10------------------------|
----------------------------------------|----------------------------|
--10-12-------------10-12---------------|----------------------------|
----------------------------------------|----------------------------|
----------------------------------------|----------------------------|
----------------------------------------|----------------------------|


--13-11----11-10------------------------|
--------13-------13-11------------------|
-----------------------13---------------|
----------------------------------------|
----------------------------------------|
----------------------------------------|


----------------------------------------|
----------------------------------------|
--12----------------12-10---------------|
----------------------------------------|
----------------------------------------|
----------------------------------------|


----------------------------------------|------------------||----||
----------------------------------------|------------------||----||
--10----------12------------------------|-----------------o||----||
-----13-12-13---------------------------|-----------------o||----||
----------------------------------------|------------------||----||
----------------------------------------|------------------||----||



Arpeggios


E |----||---------------------------|----------------------------|
B |----||-------------3-----4-------|--------------3-----4-------|
G |----||o------5-------------------|--------5-------------------|
D |----||o---5-----5-----5-----5----|-----5-----5-----5-----5----|
A |----||-3-------------------------|--3-------------------------|
E |----||---------------------------|----------------------------|


----------------------------|----------------------------|
----------------------------|----------------------------|
--------------------5-------|--------------------5-------|
--------6-----8-------------|--------6-----8-------------|
-----6-----6-----6-----6----|-----6-----6-----6-----6----|
--4-------------------------|--4-------------------------|


----------------------------|----------------------------|
----------------------------|----------------------------|
--------------0-----1-------|----------------------------|
--------3-------------------|--------5-----7-----9-------|
-----3-----3-----3-----3----|-----5-----5-----5-----5----|
--1-------------------------|--3-------------------------|


----------------------------|----------------------------|
----------------------------|----------------------------|
----------------------------|----------------------------|
--------6-----8-----6-------|--------6-----8-----6-------|
-----6-----6-----6-----6----|-----6-----6-----6-----6----|
--4-------------------------|--4-------------------------|


----------------------------|----------------------------|
--------------3-----4-------|--------------3-----4-------|
--------5-------------------|--------5-------------------|
-----5-----5-----5-----5----|-----5-----5-----5-----5----|
--3-------------------------|--3-------------------------|
----------------------------|----------------------------|


----------------------------|----------------------------|
----------------------------|----------------------------|
--------------------5-------|--------------------5-------|
--------6-----8-------------|--------6-----8-------------|
-----6-----6-----6-----6----|-----6-----6-----6-----6----|
--4-------------------------|--4-------------------------|


----------------------------|----------------------------|
----------------------------|----------------------------|
--------------0-----1-------|----------------------------|
--------3-------------------|--------5-----7-----9-------|
-----3-----3-----3-----3----|-----5-----5-----5-----5----|
--1-------------------------|--3-------------------------|


----------------------------|----------------------------|
----------------------------|----------------------------|
----------------------------|----------------------------|
--------6-----8-----6-------|--------6-----8-----6-------|
-----6-----6-----6-----6----|-----6-----6-----6-----6----|
--4-------------------------|--4-------------------------|


--------------4-------------|--------------6-------------|
-----------6--6-------------|-----------8--8-------------|
--------5-----5-------------|--------7-----7-------------|
-----6----------------------|-----8----------------------|
--8-------------------------|--10------------------------|
----------------------------|----------------------------|


--------------8-------------|--------------7-------------|
-----------9--9-------------|-----------8--8-------------|
--------8-----8-------------|--------7-----7-------------|
-----10---------------------|-----9----------------------|
--11------------------------|--10------------------------|
----------------------------|----------------------------|


--------------4-------------|--------------7-------------|
-----------6--6-------------|-----------8--8-------------|
--------5-----5-------------|--------7-----7-------------|
-----6----------------------|-----9----------------------|
--8-------------------------|--10------------------------|
----------------------------|----------------------------|


-----------------------15---|--11--||----||
-----------------13-16------|--13--||----||
-----------12-13------------|--12-o||----||
--------13------------------|-----o||----||
-----15---------------------|------||----||
--16------------------------|------||----||


        
Comments

No comments yet