Gametabs
Home
Tabs
Random

Music Box

Average rating: 5.000

5 ratings

Composer:

Tabber:

Style:

Instrument:

Created: June 03, 2012 at 12:00 AM

                             Music Box (remixed)      from  Final Fantasy V

 Music by Nobuo Uematsu >> arr. for piano by Arnold Morrison >> arr.for guitar by Diralark

 ost : http://www.youtube.com/watch?v=7t-4GQHyeIs

 Guitar (I play it with Capo 4), let ring

  (T)empo=93
      ^                    ^                             ^                    ^         
      E  E  E  E  E  E     E  E  E  E  E  E     E  E  E  E  E  E     E  E  E  E  E  E   
E||---3-----1--0--------|--3-----1--0--------|--------------------|--0-----------------|
B||------------1-----1--|-----------1-----3--|--1-----1--1--0--1--|--------1--3--------|
G||*--------------0-----|--------------0-----|--------------------|-----2--------------|
D||*-----0--------------|-----0--------------|--3--3-----2--------|--3--------0--2--3--|
A||---2--------3--------|--2--------3--------|--------------------|--------------------|
E||---------------------|--------------------|--------------------|--------------------|


                                                    rall.----------T=88           T=93
  ^                    ^                    ^                   ^                  ^        ^         
  E  E  E  E  E  E     E  E  E  E  E  E     Q    E  E  E  E     E  E  E  Q.        E  E  E  E  E  E   
--3-----1--0--------|--3-----1--0--------|-------------------|--0-----1---------|--0-----1--3-----1--|
-----------1--0--1--|-----------------3--|--1----1--1--0--1--|-----------3------|--------------------|
--0--2--------------|--------------------|-------------------|--0---------------|-----0--------0-----|
--------------------|-----0--------0-----|--4-------0--------|--------0---------|-----------0--------|
-----------0--------|--2--------3--------|-------------------|-----2------------|--3-----------------|
--------------------|--------------------|-------------------|------------------|--------------------|


  ^        ^           ^        ^           ^                    ^        ^           ^        ^         
  E  E  E  E  E  E     E  E  E  E  E  E     E  E  E  E  E  E     E  E  E  E  E  E     E  E  E  E  E  E   
--0-----1--------1--|--0--------------1--|--0-----------------|--0-----1--3-----1--|--0-----1--------1--|
-----------3--------|-----3--1--3--------|--------1--3-----0--|--------------------|-----------3--------|
-----0--------0-----|--------------0-----|-----0--------0-----|-----0--------0-----|-----0--------0-----|
--2--------3--------|--2--------0--------|--------------------|-----------0--------|--2--------3--------|
--------------------|--------------------|--3--------2--------|--3-----------------|--------------------|
--------------------|--------------------|--------------------|--------------------|--------------------|


           rall.----------T=88                   T=93
  ^                    ^                           ^                    ^                  
  E  E  E  E  E  E     E  E  E  E   E    E         E  E  E  E  E  E     E  E  E  E  E  E   
--0-----------------|-------------------------||---------------------|--------------------|
-----3--1--3--1--0--|--1-----------(1)--------||---3-----1--0--------|--3-----1--0--------|
--------------------|--------0----------(0)--*||*-----------0-----0--|-----------0-----2--|
--2--------0--------|-----2------------------*||*--------------0-----|--------------0-----|
--------------------|--3--------3-------------||------0--------------|-----0--------------|
--------------------|-------------------------||---2--------3--------|--2--------3--------|


                                                                                              rall.-----
           ^                    ^           ^                    ^                    ^                 
  E  E  E  E  E  E     E  E  E  E  E  E     E  E  E  E  E  E     E  E  E  E  E  E     Q    E  E  E  E   
--------------------|--------------------|--------------------|--------------------|-------------------|
--------------------|--0-----------------|--3-----1--0--------|--3--0--1--0--------|-------------------|
--0-----0--0-----0--|--------0--2--------|-----------0-----0--|--------2--0-----2--|--0----0--0-----0--|
--------------4-----|-----2--------------|--0--2--------4-----|-----------------4--|-------------4-----|
--3--3-----2--------|--3--------0--2--3--|--------------------|--------------0-----|--4-------0--------|
--------------------|--------------------|-----------0--------|--2--------3--------|-------------------|


-----T=88           T=93
  ^                  ^        ^           ^        ^           ^        ^           ^                  
  E  E  E  Q.        E  E  E  E  E  E     E  E  E  E  E  E     E  E  E  E  E  E     E  E  E  E  E  E   
------------------|--------------------|--------------------|--------------------|--------------------|
--0-----1---------|--0-----1--3-----1--|--0-----1--------1--|--0--------------1--|--0-----------------|
-----------2------|--------------------|-----------2--------|-----2--0--2--------|--------0--2--------|
--0---------------|-----0--------0-----|-----0--------0-----|--------------0-----|-----0--------0--4--|
--------0---------|-----------0--------|--2--------3--------|--2--------0--------|--------------------|
-----2------------|--3-----------------|--------------------|--------------------|--3--------2--------|


                                                     rall.----------T=80
                                                               1.___________
  ^        ^           ^        ^           ^                    ^                        
  E  E  E  E  E  E     E  E  E  E  E  E     E  E  E  E  E  E     E  E  E  E   E    E      
--------------------|--------------------|--------------------|-------------------------||
--0-----1--3-----1--|--0-----1--------1--|--0-----------------|-------------------------||
--------------------|-----------2--------|-----2--0--2--0-----|--0-----------(0)-------*||
-----0--------0-----|-----0--------0-----|-----------------4--|--------0----------(0)--*||
-----------0--------|--2--------3--------|--2--------0--------|-----2-------------------||
--3-----------------|--------------------|--------------------|--3--------3-------------||


2.__________  Da Capo
  ^                 
  E  E  E  Q.       
------------------||
------------------||
--0---------------||
--------0---------||
-----2------------||
--3--------3------||

Legend
---------------
Q - quarter
E - 8th
. - note dotted
^ - brush up
        
Comments

@thedstring (June 04, 2012 at 9:46 PM)

Very nice, sounds just like it should


@Sugarheady (February 07, 2019 at 10:38 AM)

I LOVE IT!