Gametabs
Home
Tabs
Random

Lenna's Theme

Average rating: 5.000

2 ratings

Composer:

Tabber:

Style:

Instrument:

Created: May 23, 2008 at 12:00 AM

            Lenna's Theme
Lenna's Theme - FFV

e-----3--1--0-|---0-------|---0------------|--------
B--1----------|-3---0-----|-3---0------0-3-|-1------
G-------------|-----------|---------2------|----2---
D--2----------|-----------|----------------|--------
A-------------|-2---------|-------2--------|-0------
E-------------|-------3---|-1--------------|------3-

e------------------|------|----------------|-0--------
B------------------|-0----|------0---------|-2------0-
G-------2----------|---0--|----------0---0-|-2----2---
D--0-2-------2-0-2-|------|-0-2--------2---|-2--------
A---------0--------|-2----|--------2-------|----------
E--1---------------|-3----|-0--------------|----------


e-----3--1--0-|---0-------|---0------------|--------
B--1----------|-3---0-----|-3---0------0-3-|-1------
G-------------|-----------|----------2-----|----2---
D--2----------|-----------|----------------|--------
A-------------|-2---------|-------2--------|-0------
E-------------|-------3---|-1--------------|------3-

e------------------|-----|----------------|-0--------
B------------------|-0---|------0---------|-2------0-
G-------2----------|-----|----------0---0-|-2----2---
D--0-2-------2-0-2-|-----|-0-2--------2---|-2--------
A---------0--------|-2---|--------2-------|----------
E--1---------------|-3---|-0--------------|----------

e--3-----------5-|-3--------1-|-3-6-5--1-|-3-----
B--0--0--1--3----|-4--4--4----|-----6----|-3-----
G--0-------------|-3----------|-3---5----|-0-----
D--2-------------|-5----------|-----7----|-0-----
A--3--------2----|------------|----------|-2-----
E-----------3----|------------|----------|-3-----

        
Comments

@Madhobbit (May 31, 2008 at 10:52 PM)

This sounds really good!


@Shade (January 23, 2010 at 4:18 PM)

wow ive gotten much better since i did this...i mean its a pretty song any way you play it, but i should re-do it with measure and time markers


@musenji (October 17, 2014 at 2:34 PM)

I've added measure markings, at least. People will still have to judge rhythms for themselves. :p