Gametabs
Home
Tabs
Random

Lenna's Theme

Average rating: 5.000

1 ratings

Composer:

Tabber:

Style:

Instrument:

Created: December 13, 2011 at 12:00 AM

            Melody

E |----|-------|-------|-------|-------|-----15-13-12---|
B |----|-------|-------|-------|-------|--13------------|
G |----|-------|-------|-------|-------|----------------|
D |----|-------|-------|-------|-------|----------------|
A |----|-------|-------|-------|-------|----------------|
E |----|-------|-------|-------|-------|----------------|


-----12---------------------|-----12----------------10---|
--15----12------------------|--15----12-------10-12------|
----------------------------|----------------------------|
----------------------------|----------------------------|
----------------------------|----------------------------|
----------------------------|----------------------------|


----------------------------|----------------------------|--7----|
--13-10---------------------|--------10------------------|-------|
----------------------------|--7--9-----------9--7--9----|-------|
----------------------------|----------------------------|-------|
----------------------------|----------------------------|-------|
----------------------------|----------------------------|-------|


--------7-------------------|--9-------------------------|-----15-13-12---|
-----------------8-----8----|-----------------------12---|--13------------|
--7--9--------------9-------|--------------------14------|----------------|
----------------------------|----------------------------|----------------|
----------------------------|----------------------------|----------------|
----------------------------|----------------------------|----------------|


-----12---------------------|-----12---------------------|
--15----12------------------|--15----12----------12-15---|
----------------------------|-----------------14---------|
----------------------------|----------------------------|
----------------------------|----------------------------|
----------------------------|----------------------------|


----------------------------|----------------------------|--7----|
--13------------------------|--------10------------------|-------|
-----14---------------------|--7--9-----------9--7--9----|-------|
----------------------------|----------------------------|-------|
----------------------------|----------------------------|-------|
----------------------------|----------------------------|-------|


--------7-------------------|-------||------|-------|-------|-------|
-----------------8-----8----|--10---||------|-------|-------|-------|
--7--9--------------9-------|-------||o-----|-------|-------|-------|
----------------------------|-------||o-----|-------|-------|-------|
----------------------------|-------||------|-------|-------|-------|
----------------------------|-------||------|-------|-------|-------|


-----15-13-12---|-----12---------------------|-----12---------------------|
--13------------|--15----12------------------|--15----12----------12-15---|
----------------|----------------------------|-----------------14---------|
----------------|----------------------------|----------------------------|
----------------|----------------------------|----------------------------|
----------------|----------------------------|----------------------------|


----------------------------|----------------------------|--7----|
--13------------------------|--------10------------------|-------|
-----14---------------------|--7--9-----------9--7--9----|-------|
----------------------------|----------------------------|-------|
----------------------------|----------------------------|-------|
----------------------------|----------------------------|-------|


--------7-------------------|------|||
-----------------8-----8----|--10--|||
--7--9--------------9-------|-----o|||
----------------------------|-----o|||
----------------------------|------|||
----------------------------|------|||



Harp

E |----------------|----------------------------|----------------------------|
B |----------------|----------------------------|-----------0----------------|
G |----------------|-----------2----------------|--------0-------------------|
D |--x--x--x--x----|--------2-------------------|----------------------------|
A |----------------|-----3----------------------|-----2----------------------|
E |----------------|--1-------------------------|--1-------------------------|


----------------------------|----------------------------|
----------------------------|-----------0----------------|
-----------2----------------|--------0-------------------|
--------2-------------------|----------------------------|
-----3----------------------|-----2----------------------|
--1-------------------------|--1-------------------------|


----------------------------|----------------------------|
----------------------------|----------------------------|
-----------2----------------|-----------0----------------|
--------2-------------------|--------2-------------------|
-----3----------------------|-----2----------------------|
--1-------------------------|--1-------------------------|


----------------------------|----------------------------|
----------------------------|----------------------------|
-----------0----------------|-----------2----------------|
--------2-------------------|--------2-------------------|
-----2----------------------|--0--3----------------------|
--0-------------------------|----------------------------|


----------------------------|----------------------------|
----------------------------|----------------------------|
-----------2----------------|-----------0----------------|
--------2-------------------|--------2-------------------|
-----3----------------------|-----2----------------------|
--1-------------------------|--1-------------------------|


----------------------------|----------------------------|
----------------------------|----------------------------|
-----------0----------------|-----------2----------------|
--------2-------------------|--------2-------------------|
-----2----------------------|--0--4----------------------|
--0-------------------------|----------------------------|


----------------------------|----------------------------|
----------------------------|----------------------------|
-----------2----------------|-----------0----------------|
--------2-------------------|--------2-------------------|
-----3----------------------|-----2----------------------|
--1-------------------------|--1-------------------------|


----------------------------|----------------------------|
----------------------------|----------------------------|
-----------0----------------|-----------2----------------|
--------2-------------------|--------2-------------------|
-----2----------------------|--0--3----------------------|
--0-------------------------|----------------------------|


----------------------------|----------------------------|
----------------------------|----------------------------|
-----------2----------------|-----------0----------------|
--------2-------------------|--------2-------------------|
-----3----------------------|-----2----------------------|
--1-------------------------|--1-------------------------|


----------------------------|----------------------------||
----------------------------|----------------------------||
-----------0----------------|-----------2----------------||
--------2-------------------|--------2-------------------||
-----2----------------------|--0--3----------------------||
--0-------------------------|----------------------------||


-15----------10-------17---|--15------|--15----------------17------|--15---|
-------12-13---------------|-----16---|--------12-13-15------------|-------|
o--------------------------|----------|----------------------------|-------|
o--------------------------|----------|----------------------------|-------|
---------------------------|----------|----------------------------|-------|
---------------------------|----------|----------------------------|-------|


----------------------------|----------------------------|
----------------------------|----------------------------|
-----------2----------------|-----------0----------------|
--------2-------------------|--------2-------------------|
-----3----------------------|-----2----------------------|
--1-------------------------|--1-------------------------|


----------------------------|----------------------------|
----------------------------|----------------------------|
-----------0----------------|-----------2----------------|
--------2-------------------|--------2-------------------|
-----2----------------------|--0--3----------------------|
--0-------------------------|----------------------------|


----------------------------|----------------------------|
----------------------------|----------------------------|
-----------2----------------|-----------0----------------|
--------2-------------------|--------2-------------------|
-----3----------------------|-----2----------------------|
--1-------------------------|--1-------------------------|


----------------------------|---------------------------|||
----------------------------|---------------------------|||
-----------0----------------|-----------2--------------o|||
--------2-------------------|--------2-----------------o|||
-----2----------------------|--0--3---------------------|||
--0-------------------------|---------------------------|||



Chords


E |----|-------|-------|-------|-------|-------|-------|-------|-------|-------|
B |----|-------|-------|-------|-------|-------|-------|-------|-------|-------|
G |----|-------|-------|-------|-------|-------|-------|-------|-------|-------|
D |----|-------|-------|-------|-------|-------|-------|-------|-------|-------|
A |----|-------|-------|-------|-------|-------|-------|-------|-------|-------|
E |----|-------|-------|-------|-------|-------|-------|-------|-------|-------|


-------|-------|--9----|--12---|--7--10---|--10---|--8--10---|--8----|
-------|-------|--10---|--10---|--8--8----|--8----|--10-12---|--10---|
-------|-------|--9----|--10---|--10-10---|--9----|--9--12---|--10---|
-------|-------|-------|-------|----------|-------|----------|-------|
-------|-------|-------|-------|----------|-------|----------|-------|
-------|-------|-------|-------|----------|-------|----------|-------|


--7--10---|--7----|--8----||-8--10---|--11-8----|--8--6----|--11---|--12---|
--8--8----|--8----|--10---||-8--10---|--10-10---|--8--6----|--13---|--10---|
--10-10---|--9----|--10---||o9--11---|--12-10---|--9--7----|--13---|--10---|
----------|-------|-------||o--------|----------|----------|-------|-------|
----------|-------|-------||---------|----------|----------|-------|-------|
----------|-------|-------||---------|----------|----------|-------|-------|


--7--10---|--10---|--8--10---|--8----|--7--10---|--7----|--8---|||
--8--8----|--8----|--10-12---|--10---|--8--8----|--8----|--10--|||
--10-10---|--9----|--9--12---|--10---|--10-10---|--9----|--10-o|||
----------|-------|----------|-------|----------|-------|-----o|||
----------|-------|----------|-------|----------|-------|------|||
----------|-------|----------|-------|----------|-------|------|||

For the bass go to see Auriplane's tab or dl the GP file ;)
        
Comments

No comments yet