Gametabs
Home
Tabs
Random

Marche's Theme

Average rating: 5.000

1 ratings

Composer:

Tabber:

Style:

Instrument:

Created: November 29, 2011 at 12:00 AM

            Marche (Capo 4)
Final Fantasy Tactics Advanced
Tabbed by Lemoncobbler


     Q    Q    Q    Q       Q    Q    Q    Q       Q    Q    Q    Q     
E||--0----L----0----L----|--0----L--------------|--0----L----5----L----|
B||----------------------|------------2----3----|----------------------|
G||----------------------|------------2---------|------------2---------|
D||-------2---------2----|-------2---------2----|-------2---------2----|
A||--0-------------------|--0-------------------|--0-------------------|
E||----------------------|----------------------|----------------------|


  Q    Q    Q    Q       Q    Q    Q    Q       Q    Q    Q    Q     
--3----L----1---------|--0----L--------------|----------------------|
----------------------|----------------------|------------3----L----|
------------2---------|------------2----L----|--0----L----2---------|
-------3---------3----|-------2---------2----|-------0---------0----|
--0-------------------|--0-------------------|--0-------------------|
----------------------|----------------------|----------------------|


  Q    Q    Q    Q       Q    Q    Q    Q       Q    Q    Q    Q     
----------------------|----------------------|--0----L----0----L----|
----------------------|----------------------|----------------------|
--0----4----2---------|------------1---------|--2-------------------|
-------2---------2----|-------0---------0----|-------2---------2----|
--0-------------------|--0-------------------|--0-------------------|
----------------------|----------------------|----------------------|


  Q    Q    Q    Q       Q    Q    Q    Q       Q    Q    Q    Q     
--0----L--------------|--0----L----5----L----|--3----L----1---------|
------------2----3----|----------------------|--3-------------------|
--1---------2---------|--0---------2---------|------------2---------|
-------2---------2----|-------2---------2----|-------3---------3----|
--0-------------------|--0-------------------|--0-------------------|
----------------------|----------------------|----------------------|


  Q    Q    Q    Q       Q    Q    Q    Q       Q    Q    Q    Q     
--0----L--------------|----------------------|----------------------|
----------------------|----------------------|----------------------|
------------2----L----|--0---------L---------|------------2---------|
-------2---------2----|-------0---------3----|--2----0---------0----|
--0-------------------|--0-------------------|--0-------------------|
----------------------|----------------------|----------------------|


  Q    Q    Q    Q       Q    Q    Q    Q       Q    Q    Q    Q     
----------------------|----------------------|----------------------|
----------------------|----------------------|----------------------|
------------2---------|--2---------2---------|--2--------------1----|
-------0---------2----|-------0---------2----|--4---------4---------|
--0-------------------|----------------------|-----------------0----|
----------------------|----------------------|----------------------|


  Q    Q    Q    Q       H        H           Q    Q    H         
------------0---------|--------------------|---------------------|
-----------------3----|--2--------0--------|--0------------------|
--2-------------------|--------------------|-------2----2--------|
--0----0--------------|--4-----------------|--0------------------|
----------------------|--------------------|---------------------|
----------------------|--------------------|------------0--------|


  H        Q    Q       W                   W                 
---------------------|-------------------|-------------------|
-----------2---------|-------------------|-------------------|
----------------2----|-------------------|-------------------|
-----------2---------|--4----------------|--2----------------|
---------------------|--0----------------|-------------------|
--2------------------|-------------------|--0----------------|


  W                   W                   H        H         
-------------------|-------------------|--------------------|
-------------------|--0----------------|--1--------1--------|
--2----------------|-------------------|--------------------|
-------------------|-------------------|--------------------|
-------------------|-------------------|--------------------|
--2----------------|--4----------------|--1--------3--------|


  H        Q    Q       H        Q    Q       H        H         
---------------------|-----------3----1----|--0-----------------|
--1-------------0----|--1------------------|-----------0--------|
--2--------2---------|---------------------|--------------------|
--2------------------|---------------------|--------------------|
--0--------0---------|---------------------|--0--------2--------|
-----------3---------|--1--------3---------|--------------------|


            v          
  Q    Q    H          
--0------------------||
-------1----1--------||
------------0--------||
------------3--------||
---------------------||
---------------------||




Duration Legend
---------------
W - whole
H - half
Q - quarter
E - 8th
S - 16th
T - 32nd
X - 64th
. - note dotted
|-n-|  - n-tuplets


Tablature Legend
----------------
L - tied note
x - dead note
g - grace note
(n) - ghost note
> - accentuded note
NH - natural harmonic
AH - artificial harmonic
TH - tapped harmonic
SH - semi harmonic
PH - pitch harmonic
h - hammer on
p - pull off
b - bend
br - bendRelease
pb - preBend
pbr - preBendRelease
brb - bendReleaseBend
\n/ - tremolo bar dip
\n - tremolo bar dive
-/n - tremolo bar Release up
/n\ - tremolo bar inverted dip
/n - tremolo bar return
-\n - tremolo bar Release down
S - shift slide
s - legato slide
/ -  slide into from below or out of upwards
\ -  slide into from above or out of downwards
~ - vibrato
W - wide vibrato
tr - trill
TP - tremolo picking
T - tapping
S - slap
P - pop
< - fade in
^ - brush up
v - brush down

        
Comments

No comments yet