Gametabs
Home
Tabs
Random

Town Theme

Average rating: No ratings

Composer:

Tabber:

Style:

Instrument:

Created: October 01, 2007 at 12:00 AM

            Town
Final Fantasy
Composed by Nobuo Uematsu

1/7/06

e-------------------------5---5---------------8---8-8---7-5------------------
B--5--8-----5-6-5---------6-----8---5-6-5-----10----10------8---5-6-5--------
G--------7--------7-5-----5-------7-----------9-----9---------7--------5--7--
D----------------------------------------------------------------------------
A----------------------------------------------------------------------------
E----------------------------------------------------------------------------

e-----------------
B-----------------
G--7---5-7-5---4--
D----8------------
A-----------------
E-----------------

The same melody is repeated with the flute and then again with the guitar.

        
Comments

No comments yet