Gametabs
Home
Tabs
Random

The Rebel Army

Average rating: 5.000

3 ratings

Composer:

Tabber:

Style:

Instrument:

Created: November 28, 2007 at 12:00 AM

                                             THE REBEL ARMY
                          As recorded by Nobuo Uematsu
                (From the 2003 Album FINAL FANTASY ORIGINS - FF2)

Music by Nobuo Uematsu
Arranged by ajrock2000

Gtr I (E A D G B E) - 'Gtr 1'

      Q=110
   4/4
      Gtr I
    S S S S   Q.   S S Q  Q    Q  E. S Q  Q    E E E E E S S E E
||----------|----------2-----|---------------|-----0-------0-----|
||o---------|-0--------3-----|-0--3--1-0-----|-0-----0-3-3---3---|
||----------|-0------0-2-----|-0-------2--2--|---0-------------2-|
||------2-4-|-2----4---0--0--|-0-------1-----|-2-------0---------|
||o---2-----|-2--------------|-2-------2-----|-------------------|
||----------|----------------|-3-------------|-------------------|


  E E E E E E E E   E E S S E E E E E
|---------0-------|-0-------0---------|
|-0-----0-------0-|-----0h1---3---0-1-|
|-----0-------0---|-------------2-----|
|---2-------2-----|---2-------0-------|
|-----------------|-3-----------------|
|-0---------------|-------------------|


                                |-3-|
  E E E E E E E E    Q.   E  Q  E E E  E
|-----------------|-----------------------|
|-0-----1-0-------|-----------------------|
|---0-2-------0---|---------^3----1-3-^4--|
|-----------2---2-|-^4----4-^4--4-----^4--|
|---------2-------|-^4------^4--------^2--|
|-0---------------|-^2------^2------------|


  +H
|---------||----|
|--------o||----|
|-(4)-----||----|
|-(4)-----||----|
|-(2)----o||----|
|---------||----|


        
Comments

No comments yet