Gametabs
Home
Tabs
Random

Lava Dome

Average rating: No ratings

Composer:

Tabber:

Style:

Instrument:

Created: August 14, 2008 at 12:00 AM

            Lava Dome
Final Fantasy Mystic Quest



Bass
     H.              S S S S S S S S S S S S    S S S S S S S S S S S S  
G||---------------|--------------------------|--------------------------|
D||---------------|--------------------------|------------4-------3-----|
A||---------------|--------------2-------2-1-|--4-----1-----3-----------|
E||---------------|--0---0-3-0-0---0-3-0-----|----2-2---2-----1-1---1-1-|


  S S S S S S S S S S S S    S S S S S S S S S S S S  
--------------------------|--------------------------|
--------------------------|----------------------0---|
--------------1---0-------|--2-----------3-----------|
--0-0-0-3-0-0---0---0-3-0-|----0-0-3-0-0---0-3-0---0-|


  S S S S S S S S S S S S    S S S S S S S S S S S S    S S S S S S E  E  E   
--------------------------|--------------------------|-----------------------|
--------------------------|------------4-------3-----|-----------------------|
--------------2-------2-1-|--4-----1-----3-----------|--------------1--0-----|
--0---0-3-0-0---0-3-0-----|----2-2---2-----1-1---1-1-|--0-0-0-3-0-0-------3--|


  E  E  E  E  E  E     S S S S S S S S S S S S    S S S S S S S S S S S S  
--------------------|--------------------------|--------------------------|
--------------------|--------------------------|--------------------------|
--2--1--0-----------|--------------2-----------|--1---0-----------0-----0-|
-----------3--2--1--|--0-0-0-3-0-0---0-0-3-0-0-|----0---0-3-0-3-0---0-3---|


  S S S E.  E  S S S S    S S S S S S S S S S S S    S S S S S S S S S S S S  
-----------------------|--------------------------|--------------------------|
---------------1-2-3-4-|--------------------------|--------------------------|
--2-1-2-----2----------|--3---2-0-1-2-1---2-0-----|--------------2-----------|
--------2--------------|----0-----------0-----3-2-|--0-0-0-3-0-0---0-0-3-0-0-|


  S S S S S S S S S S S S    S S S E.  E  S S S S    S S S S S S S S S S S S  
--------------------------|-----------------------|--------------------------|
--------------------------|---------------1-2-3-4-|--------------------------|
--1---0-----------0-----0-|--2-1-2-----2----------|--3---2-0-1-2-1---2-0-----|
----0---0-3-0-3-0---0-3---|--------2--------------|----0-----------0-----3-2-|


  S S S S S S S S S S E     S S S S S S S S S S S S    S S S S S S S S S S S S  
-------------------------|--------------------------|--------------------------|
--------2----------------|--------------------------|--------2-----------------|
--------------------1----|--1-2-2-2-2-2-1-2-2-2-2-2-|--------------------2-----|
--0---0---0---0---0---0--|--------------------------|--0---0---0---0---0---0---|


  S S S S S S S S S S S S    S S S S S S S S S S E     S S S S S S S S S S S S  
--------------------------|-------------------------|--------------------------|
--------------------------|--------2----------------|--------------------------|
--0-1-1-1-1-1-------------|--------------------1----|--1-2-2-2-2-2-1-2-2-2-2-2-|
--------------1-2-2-2-2-2-|--0---0---0---0---0---0--|--------------------------|


  S S S S S S S S S S S S    S S S S S S S S S S S S    E  S S S S E  S S S S  
--------------------------|--------------------------|------------------------|
--------2-----------------|--------------------------|--2---------------------|
--------------------2-----|--0-1-1-1-1-1-------------|-------------1----------|
--0---0---0---0---0---0---|--------------1-2-2-2-2-2-|-----0---0------0---0---|


  E  E  E  S S S S S S    S S S S S S S S S S S S    S S S S S S S S S S S S  
-----------3-3---------|----------------3---4---5-|--------------------------|
-----------------------|--------------2---3---4---|--------------------------|
-----------------------|--1-1---------------------|--------------2-------2-1-|
--3--2--1--------------|--------------------------|--0---0-3-0-0---0-3-0-----|


  S S S S S S S S S S S S    S S S S S S S S S S S S  
--------------------------|--------------------------|
------------4-------3-----|--------------------------|
--4-----1-----3-----------|--------------1---0-------|
----2-2---2-----1-1---1-1-|--0-0-0-3-0-0---0---0-3-0-|


  S S S S S S S S S S S S    S S S S S S S S S S S S  
--------------------------|--------------------------|
----------------------0---|--------------------------|
--2-----------3-----------|--------------2-------2-1-|
----0-0-3-0-0---0-3-0---0-|--0---0-3-0-0---0-3-0-----|


  S S S S S S S S S S S S    S S S S S S E  E  E     E  E  E  E  E  E   
--------------------------|-----------------------|--------------------|
------------4-------3-----|-----------------------|--------------------|
--4-----1-----3-----------|--------------1--0-----|--2--1--0-----------|
----2-2---2-----1-1---1-1-|--0-0-0-3-0-0-------3--|-----------3--2--1--|


  S S S S S S S S S S S S    S S S S S S S S S S S S    S S S E.  E  S S S S  
--------------------------|--------------------------|-----------------------|
--------------------------|--------------------------|---------------1-2-3-4-|
--------------2-----------|--1---0-----------0-----0-|--2-1-2-----2----------|
--0-0-0-3-0-0---0-0-3-0-0-|----0---0-3-0-3-0---0-3---|--------2--------------|


  S S S S S S S S S S S S    S S S S S S S S S S S S  
--------------------------|--------------------------|
--------------------------|--------------------------|
--3---2-0-1-2-1---2-0-----|--------------2-----------|
----0-----------0-----3-2-|--0-0-0-3-0-0---0-0-3-0-0-|


  S S S S S S S S S S S S    S S S E.  E  S S S S    S S S S S S S S S S S S  
--------------------------|-----------------------|--------------------------|
--------------------------|---------------1-2-3-4-|--------------------------|
--1---0-----------0-----0-|--2-1-2-----2----------|--3---2-0-1-2-1---2-0-----|
----0---0-3-0-3-0---0-3---|--------2--------------|----0-----------0-----3-2-|


  S S S S S S S S S S E     S S S S S S S S S S S S    S S S S S S S S S S S S  
-------------------------|--------------------------|--------------------------|
--------2----------------|--------------------------|--------2-----------------|
--------------------1----|--1-2-2-2-2-2-1-2-2-2-2-2-|--------------------2-----|
--0---0---0---0---0---0--|--------------------------|--0---0---0---0---0---0---|


  S S S S S S S S S S S S    S S S S S S S S S S E     S S S S S S S S S S S S  
--------------------------|-------------------------|--------------------------|
--------------------------|--------2----------------|--------------------------|
--0-1-1-1-1-1-------------|--------------------1----|--1-2-2-2-2-2-1-2-2-2-2-2-|
--------------1-2-2-2-2-2-|--0---0---0---0---0---0--|--------------------------|


  S S S S S S S S S S S S    S S S S S S S S S S S S    E  S S S S E  S S S S  
--------------------------|--------------------------|------------------------|
--------2-----------------|--------------------------|--2---------------------|
--------------------2-----|--0-1-1-1-1-1-------------|-------------1----------|
--0---0---0---0---0---0---|--------------1-2-2-2-2-2-|-----0---0------0---0---|


  E  E  E  S S S S S S    S S S S S S S S S S S S    S S S S S S S S S S S S  
-----------3-3---------|----------------3---4---5-|--------------------------|
-----------------------|--------------2---3---4---|--------------------------|
-----------------------|--1-1---------------------|--------------2-------2-1-|
--3--2--1--------------|--------------------------|--0---0-3-0-0---0-3-0-----|


  S S S S S S S S S S S S    S S S S S S S S S S S S  
--------------------------|--------------------------|
------------4-------3-----|--------------------------|
--4-----1-----3-----------|--------------1---0-------|
----2-2---2-----1-1---1-1-|--0-0-0-3-0-0---0---0-3-0-|


  S S S S S S S S S S S S    S S S S S S S S S S S S  
--------------------------|--------------------------|
----------------------0---|--------------------------|
--2-----------3-----------|--------------2-------2-1-|
----0-0-3-0-0---0-3-0---0-|--0---0-3-0-0---0-3-0-----|


  S S S S S S S S S S S S    S S S S S S E  E  E     E  E  E  E  E  E   
--------------------------|-----------------------|--------------------|
------------4-------3-----|-----------------------|--------------------|
--4-----1-----3-----------|--------------1--0-----|--2--1--0-----------|
----2-2---2-----1-1---1-1-|--0-0-0-3-0-0-------3--|-----------3--2--1--|


  S S S S S S S S S S S S    S S S S S S S S S S S S    S S S E.  E  S S S S  
--------------------------|--------------------------|-----------------------|
--------------------------|--------------------------|---------------1-2-3-4-|
--------------2-----------|--1---0-----------0-----0-|--2-1-2-----2----------|
--0-0-0-3-0-0---0-0-3-0-0-|----0---0-3-0-3-0---0-3---|--------2--------------|


  S S S S S S S S S S S S    S S S S S S S S S S S S  
--------------------------|--------------------------|
--------------------------|--------------------------|
--3---2-0-1-2-1---2-0-----|--------------2-----------|
----0-----------0-----3-2-|--0-0-0-3-0-0---0-0-3-0-0-|


  S S S S S S S S S S S S    S S S E.  E  S S S S    S S S S S S S S S S S S  
--------------------------|-----------------------|--------------------------|
--------------------------|---------------1-2-3-4-|--------------------------|
--1---0-----------0-----0-|--2-1-2-----2----------|--3---2-0-1-2-1---2-0-----|
----0---0-3-0-3-0---0-3---|--------2--------------|----0-----------0-----3-2-|


  S S S S S S S S S S E     S S S S S S S S S S S S    S S S S S S S S S S S S  
-------------------------|--------------------------|--------------------------|
--------2----------------|--------------------------|--------2-----------------|
--------------------1----|--1-2-2-2-2-2-1-2-2-2-2-2-|--------------------2-----|
--0---0---0---0---0---0--|--------------------------|--0---0---0---0---0---0---|


  S S S S S S S S S S S S    S S S S S S S S S S E     S S S S S S S S S S S S  
--------------------------|-------------------------|--------------------------|
--------------------------|--------2----------------|--------------------------|
--0-1-1-1-1-1-------------|--------------------1----|--1-2-2-2-2-2-1-2-2-2-2-2-|
--------------1-2-2-2-2-2-|--0---0---0---0---0---0--|--------------------------|


  S S S S S S S S S S S S    S S S S S S S S S S S S    E  S S S S E  S S S S  
--------------------------|--------------------------|------------------------|
--------2-----------------|--------------------------|--2---------------------|
--------------------2-----|--0-1-1-1-1-1-------------|-------------1----------|
--0---0---0---0---0---0---|--------------1-2-2-2-2-2-|-----0---0------0---0---|


  E  E  E  S S S S S S    S S S S S S S S S S S S   
-----------3-3---------|----------------3---4---5-||
-----------------------|--------------2---3---4---||
-----------------------|--1-1---------------------||
--3--2--1--------------|--------------------------||

        
Comments

No comments yet