Gametabs
Home
Tabs
Random

Lost Soul

Average rating: No ratings

Composer:

Tabber:

Style:

Instrument:

Created: October 17, 2011 at 12:00 AM

                       Final Fantasy Legend II - Lost Soul
                Composed by Nobuo Uematsu

         Tabbed by Auriplane ([email protected])




e |15----13-12-13-------13-|11----------------------|
B |------------------------|---11-13-14-13----11----|
G |------------------------|------------------------|
D |------------------------|------------------------|
A |------------------------|------------------------|
E |------------------------|------------------------|


e |------13-16-15----13-12-|15~---------------------|
B |---13----------15-------|------------------------|
G |13----------------------|------------------------|
D |------------------------|------------------------|
A |------------------------|------------------------|
E |------------------------|------------------------|


e |12----10-9--10-------10-|9-----------9-----------|
B |------------------------|---9--12-10-------12----|
G |------------------------|------------------------|
D |------------------------|------------------------|
A |------------------------|------------------------|
E |------------------------|------------------------|


e |------------------------|------------------------|
B |10-------10-9-----9--10-|10~---------------------|
G |------------------------|------------------------|
D |------------------------|------------------------|
A |------------------------|------------------------|
E |------------------------|------------------------|


        
Comments

@karathrow (October 17, 2011 at 6:51 AM)

Still have the box for this on my shelf, these games were awesome.

Or maybe I just thought that when I was 6 >.>