Gametabs
Home
Tabs
Random

You're Not Alone

Average rating: 4.091

11 ratings

Composer:

Tabber:

Style:

Instrument:

Created: October 01, 2007 at 12:00 AM

            You're Not Alone
Composed by Nobuo Uematsu


7/11/06

e--------------------------------------0-0-0----------------------
B--1---------------1-1-1-0-------------------3-1---1-0---0-1-0---0
G------2---0-2-------------2---0-2---------------------2-------2--
D--------------2-------------------2------------------------------
A-----------------------------------------------------------------
E-----------------------------------------------------------------

e----------------------------------0---0-0-0----------------------
B--1---------------1-1-1-0-------------------3-1---1-0---1-0------
G------2---0-2-------------2---0-2---------------------2-----2-0-2
D--------------2--------------------------------------------------
A-----------------------------------------------------------------
E-----------------------------------------------------------------

e----------5-3-----------------0-------------0--8-7---------------
B--1-0-----------3-1-3---3-1-3-----------1-3----------------------
G------2-------------------------2---2----------------------------
D-----------------------------------------------------------------
A-----------------------------------------------------------------
E-----------------------------------------------------------------

e--5-3-5-7-8---5-3---------0--------------------------------------
B------------------3-3-1-3-------------0-1-0----------------------
G----------------------------2-----2---------0-0h2----------------
D-----------------------------------------------------------------
A-----------------------------------------------------------------
E-----------------------------------------------------------------

All these riffs repeat at some point during the song. You just have
to figure that out by listening to the song itself ;P

        
Comments

No comments yet