Gametabs
Home
Tabs
Random

Victory Fanfare

Average rating: 5.000

4 ratings

Composer:

Tabber:

Style:

Instrument:

Created: October 01, 2007 at 12:00 AM

            Victory Fanfare
Final Fantasy IX
Composed by Nobuo Uematsu

8/15/06

e----------------------
B--1-1-1-1--------1---1
G-----------1--3----3--
D----------------------
A----------------------
E----------------------

e--3--1--3--1--6---6-5--6-5--5--3-1-0-1----------
B--------------------------------------3---------
G------------------------------------------------
D------------------------------------------------
A------------------------------------------------
E------------------------------------------------

e--3--1--3--1--6---6-5--6-5--5--3-1-3-6-8---(4)-(3)-(1)-----------
B------------------------------------------------------(4)-(3)----
G--------------------------------------------------------------(3)
D-----------------------------------------------------------------
A-----------------------------------------------------------------
E-----------------------------------------------------------------

        
Comments

No comments yet