Gametabs
Home
Tabs
Random

Secret Library Daguerreo

Average rating: No ratings

Composer:

Tabber:

Style:

Instrument:

Created: June 03, 2009 at 12:00 AM

            Secret Library Daguerreo
Final Fantasy IX
Composed by Nobou Uematsu
Tabbed by Rob Van
6/2/09


E|---------------------------------------------------------------|
A|-------------0--------------------------------0----------------|
D|-2--5--0--2-----2--3--0--2--------2--5--0--2-----5--2--3--0----|
G|-------------------------------------------------------------5-|

E|---------------------------------------------------------------|
A|-------------0--------------------------------0----------------|
D|-2--5--0--2-----2--3--0--2--------2--5--0--2-----5--2--3--0----|
G|-------------------------------------------------------------5-|

E|---------------------------------------------------|
A|----------3--3-----------0-------------------------|
D|----2--5--------5--2--5-----------5--5--0--2--3--2-|
G|-5-------------------------------------------------|

E|--------------------------------------------|
A|---------3--3-----------0-------------------|
D|----2--5-------5--2--6-----0--3--2----0-----|
G|-5---------------------------------------5--|

E|---------------------------------------------------|
A|----------3--3-----------0-------------------------|
D|----2--5--------5--2--5-----------5--5--0--2--3--2-|
G|-5-------------------------------------------------|

E|--------------------------------------------|
A|---------3--3-----------0-------------------|
D|----2--5-------5--2--6-----0--3--2----0-----|
G|-5---------------------------------------5--|

E|---------------------------------------------------------------------3-|
A|-----------------------------------------------------------------------|
D|-0--5--3--2----0-2--0--5--3--2--------0--5--3--2----0-2--0--0-2-3------|
G|-------------5------------------------------------5--------------------|

E|--------------------------------------------------------------------------|
A|-----------------------------------------0------------------2--0-----0--2-|
D|-0--5--3--2----0-2--0--5--3--2--------2-----5--3--0-2-3--4--------5-------|
G|-------------5------------------------------------------------------------|

E|-------------------------------------------|
A|-3--3-----------0--------------------------|
D|-------5--2--5-----------5--5--0--2--3--2--|
G|-------------------------------------------|

E|--------------------------------------------|
A|----------3--3--------1--0------------------|
D|----2--5--------5--2--------0--3--2----0----|
G|-5----------------------------------------5-|

        
Comments

No comments yet