Gametabs
Home
Tabs
Random

Secret Library Daguerreo

Average rating: 5.000

1 ratings

Composer:

Tabber:

Style:

Instrument:

Created: October 01, 2007 at 12:00 AM

            Secret Library Daguerreo
Final Fantasy IX
Composed by Nobuo Uematsu

8/23/06

Intro
e-----------------------------------------------------------------
B-----------------------------------------------------------------
G-----0--------2--0----------------------0--------2--0------------
D--2-----0--2--------2--3--0--2-------2-----0--2--------2--3--0---
A----------------------------------------------------------------3
E----------------------------------------------------------------- x2

e--------------------------------------------------
B-----------1--1-----------------------------------
G--------0--------0-----0--2-------0--0------------
D-----2--------------2-------------------0--2--3--2
A--3-----------------------------------------------
E--------------------------------------------------

e--------------------------------------------
B-----------1--1-----------------------------
G--------0--------0-----3--2-----------------
D-----2--------------2--------0--3--2----0---
A--3----------------------------------------3
E--------------------------------------------

Repeat parts 2 and 3                                          Natural harmonic
                                                                  right here
e----------------------------------------------------------------------3
B-----------------------------------------------------------------------
G-----0------------------0----------------0-----------------------------
D--0-----3--2----0-2--0-----3--2-------0-----3--2----0-2--0--0-2-3------
A--------------3-----------------------------------3--------------------
E-----------------------------------------------------------------------

e-------------------------------------------------------------------------
B------------------------------------------------------------0-----------0
G-----0------------------0----------------2--0------------------2--0--2---
D--0-----3--2----0-2--0-----3--2-------2--------3--0-2-3--4---------------
A--------------3----------------------------------------------------------
E-------------------------------------------------------------------------

e--------------------------------------------
B--1--1--------------------------------------
G--------0-----0--2-------0--0---------------
D-----------2-------------------0--2--3--2---
A--------------------------------------------
E--------------------------------------------

e--------------------------------------------
B-----------1--1-----------------------------
G--------0--------0-----3--2-----------------
D-----2--------------2--------0--3--2----0---
A--3----------------------------------------3
E--------------------------------------------

Repeat parts 2 and 3 again and you are done.

        
Comments

@Pliskin (September 19, 2007 at 11:28 AM)

congratulation