Gametabs
Home
Tabs
Random

Rose of May

Average rating: 4.412

17 ratings

Composer:

Tabber:

Style:

Instrument:

Created: May 15, 2009 at 12:00 AM

            Tabbed by Tom Daltrey - based on karaudo555's version

nobuo uematsu

capo=4

Gtr I (E A D G B E) - 'Rose of May'

  Gtr I
  E E E E E E E E E H             E E E E E E E E E H
|-------------------------------|-----------------0-5-----------|
|---0-1-0---------0-3-----------|-1-----------0-1---------------|
|-2-------------0---------------|---2-------2-------------------|
|-2-----------0-----------------|-----3---2---------------------|
|-0---------2-------------------|-------0-----------------------|
|---------3---------------------|-1-----------------------------|

  E E E E E E E E E H             E E E E E E E E E H
|-------------------------------|-----------------0-5-----------|
|---0-1-0---------0-3-----------|-1-----------0-1---------------|
|-2-------------0---------------|---2-------2-------------------|
|-2-----------0-----------------|-----3---2---------------------|
|-0---------2-------------------|-------0-----------------------|
|---------3---------------------|-1-----------------------------|

  E E E E E E E E E E E E   E E E E E E E E E E E E
|-------------0-----------|---------------0---------|
|---0-1-3---3---3-1-0---0-|---0-1-----------3-1-0---|
|-2-------0-----------0---|-2-----2---2-1---------0-|
|-2-----------------------|-2-------3---------------|
|-0-----------3-----------|-0-----------------0-----|
|-------3-----------3-----|-------1-----0-----------|

  E E E E E E E E E E E E   E E E E E E E E E Q.
|-------------0-----------|---0---------------------|
|---0-1-3---3---3-1-0-----|-----3-1-0-------0-------|
|-2-------0-----------2-0-|-----------2-0-2---2-----|
|-2-----------------------|-3-----0-----------2-----|
|-0-----------3-----------|-3-----------------0-----|
|-------3-----------3-----|-------------3-----------|

  E E E E E E E E E E E E   E E E E E E E E E E E E
|-------------0-----------|---------------0---------|
|---0-1-3---3---3-1-0---0-|---0-1-----------3-1-0---|
|-2-------0-----------0---|-2-----2---2-1---------0-|
|-2-----------------------|-2-------3---------------|
|-0-----------3-----------|-0-----------------0-----|
|-------3-----------3-----|-------1-----0-----------|

  E E E E E E E E E E E E   E E E E E E E E E E E E
|-------------0-----------|---0---------------------|
|---0-1-3---3---3-1-0-----|-----3-1-0-------0-------|
|-2-------0-----------2-0-|-----------2-0-2---2---2-|
|-2-----------------------|-3-----0-----------2-2---|
|-0-----------3-----------|-3-----------------0-----|
|-------3-----------3-----|-------------3-----------|

  E E E E E E E E E E E E   E E E E E E E E E E E E
|-3-----3---1-0---------0-|-3-------0-1-0---------0-|
|-----0-----------3-1-----|-----0-3---------3-1-----|
|---0-----0-----0-----0---|---0-----------2-----2---|
|-------------------------|-------------------------|
|-------------3-----------|-------------0-----------|
|-3-----------------------|-3-----4-----------------|

  E E E E E E E E E E E E   E E E E E E E E E E E E
|-3-----3---1-0---------0-|-------------------------|
|-----0-----------3-1-----|-3---3---0-1---------0-3-|
|---0-----0-----0-----0---|---2---2-----------0-----|
|-------------------------|-0---------------0-------|
|-------------3-----------|-------0-------2---------|
|-3-----------------------|-------------3-----------|

  E E E E E E E E E E E E   E E E E E E E E E Q.
|-3-----3---1-0---------0-|-3-------0-1-0-----------|
|-----0-----------3-1-----|-----0-3---------3-1-----|
|---0-----0-----0-----0---|---0-----------2---------|
|-------------------------|-------------------------|
|-------------3-----------|-------------0-----------|
|-1-----------------------|-3-----4-----------------|

  E E E E E E E E E Q   E   E E E E E E E E E E E E
|-0-----0-----------------|-----------------------0-|
|-----0-----3-1---0-----1-|-0---0-4---4---------0---|
|---1-----1-----2---2-----|---2-----4---------1-----|
|-------------------------|-----------------2-------|
|-------------0-----------|-2-------------2---------|
|-0-----------------------|-------2-----0-----------|

  E E E E E E E E E E E E   E E E E E E E E E E E E
|-------------0-----------|---------------0---------|
|---0-1-3---3---3-1-0---0-|---0-1-----------3-1-0---|
|-2-------0-----------0---|-2-----2---2-1---------0-|
|-2-----------------------|-2-------3---------------|
|-0-----------3-----------|-0-----------------0-----|
|-------3-----------3-----|-------1-----0-----------|

  E E E E E E E E E E E E   E E E E E E E E E Q.
|-------------0-----------|---0---------------------|
|---0-1-3---3---3-1-0-----|-----3-1-0-------0-------|
|-2-------0-----------2-0-|-----------2-0-2---2-----|
|-2-----------------------|-3-----0-----------2-----|
|-0-----------3-----------|-3-----------------0-----|
|-------3-----------3-----|-------------3-----------|

  Q   Q   Q   Q   Q   Q     Q   Q   Q   H.     
|-----0-------------------|-------------------------|
|---------3---1---0-------|---------0---------------|
|---------------------2---|-0---2-------2-----------|
|-3-----------0-----------|-------------2-----------|
|-3-----------------------|-------------0-----------|
|-------------------------|-3-----------------------|



        
Comments

@XonimaruX (May 16, 2009 at 12:13 AM)

good tab and easy for me to play this........


@999Pliskin999 (May 16, 2009 at 7:42 AM)

beautiful tab and like xoni, not too to hard to play


@tomo_94 (May 16, 2009 at 3:35 PM)

i found out it meant to be capo = 5


@styx01x (May 17, 2009 at 10:27 AM)

great work with that tab, love it


@laoise (May 17, 2009 at 12:15 PM)

Wow, Love It :) Easy To Play


@BooDoo (May 17, 2009 at 8:54 PM)

Any reason this is listed as "2+ Guitars"?

Great tab, btw- pretty easy and sounds great.


@Ranulf (June 01, 2010 at 4:34 AM)

This is awesome


@Jasmydae (July 13, 2012 at 5:45 PM)

I really like the sound of this one. I made a video recording of it.


@Scry_Kane (August 06, 2014 at 9:13 PM)

A nice and approachable arrangement that sounds great even without the capo.


@GabrielBocanegra (February 08, 2021 at 10:30 PM)

Quite a few mistakes. Almost perfect.