Gametabs
Home
Tabs
Random

Over That Hill

Average rating: 5.000

3 ratings

Composer:

Tabber:

Style:

Instrument:

Created: February 14, 2010 at 12:00 AM

            Over That Hill - Final Fantasy IX
(Overworld theme)
Tabbed by Ranulf
Composed by Nobuo Uematsu

e|--------------------------------------------------------------------|
B|--12---12-10-8---8-7---7-8-10---------7-8-------8-12-13-12----12-10-|
G|---------------------9--------7---7-9-----9-9-7------------12-------|
D|--------------------------------------------------------------------|
A|--------------------------------------------------------------------|
E|--------------------------------------------------------------------|

|---10---10-12-10----------------------------------------------------------|
|12---------------13-13-12-12-10-10-12-13---12-10--------------10-12-10----|
|-------------------------------------------------12-----9-12-----------12-|
|-----------------------------------------------------12-------------------|
|--------------------------------------------------------------------------|
|--------------------------------------------------------------------------|

|-----
|-----
|-----
|--12-  Then repeat the first two rows
|-----
|-----

|------------------------------------------------|
|--13-12-10----------10----15-13-12----------12--|
|-----------12-11-12----------------14-13-14-----|
|------------------------------------------------|
|------------------------------------------------|
|------------------------------------------------|

|--------------------------------------------------|
|--13--12--10---12-13-12-10----------12---15-13----|
|---------------------------12-11-12------------14-|
|--------------------------------------------------|
|--------------------------------------------------|
|--------------------------------------------------|

|-----
|-----
|-----
|--12-  Then repeat if you want
|-----
|-----

Add slides and bends as you will
        
Comments

No comments yet