Gametabs
Home
Tabs
Random

Loss of Me

Average rating: 5.000

2 ratings

Composer:

Tabber:

Style:

Instrument:

Created: April 29, 2014 at 12:00 AM

            Loss of Me
-Final Fantasy IX-
Composed by: Nobuo Uematsu
Arranged by: Elliott Ray
4/27/2014

Given the limited range of the Ukulele, I struggled to come up with a solution for bars 2, 4, 6, and 8. 
I'm generally dissatisfied with the end result, so if anyone can come up with something that sounds a 
bit more true to the piece OR something that suits it, I'd love to see it. But in any case, enjoy!
 
6/8
BPM = 90

   Q.          E   E   E    Q       E   E   E   E    Q.          E   E   E    Q       Q       E   E  
A||------------0---2---3---|2-----------------------|----------------0-------|------------------------|
E||------------0-----------|3---------------0-------|3-----------1-------1---|0-------------------0---|
C||------------------------|2-------0---2-----------|2-----------------------|0-------0-------0-------|
G||------------------------|--------------------0---|------------0-----------|------------------------|

 
 Q.          E   E   E    Q       E   E   E   E    Q.          E   E   E    Q       Q       E   E  
|0-----------0---2---3---|2-----------------------|----------------0-------|------------------------|
|0-----------0-----------|3---------------0-------|3-----------1-------1---|0-------------------0---|
|------------------------|2-------0---2-----------|2-----------------------|0-------0-------0-------|
|------------------------|--------------------0---|------------0-----------|------------------------|

 
 H.                        E   E   E   Q       E    E   E   E   Q       E    E   E   E   Q       E
|0----------------------||-0---2---3---5-------5---|7---5---3---2-------2---|0---2---3---------------|
|0----------------------||*0-----------3-----------|0-----------3-----------|0-----------1-------1---|
|-----------------------||*0-----------2-----------|0-----------2-----------|0-----------0-----------|
|-----------------------||-------------------------|------------------------|------------------------|

 
 E   E   E   E   E   E    E   E   E   Q       E    E   E   E   E   E   E    E   E   E   E   E   E  
|----7---5---3---2-------|0---2---3---5-------5---|7---5---3---2---0-------|----7---5---3---2---0---|
|0-----------0-------3---|0-----------3-----------|0-----------3-------3---|1-----------1-----------|
|0-----------------------|0-----------2-----------|0-----------2-----------|0-----------0-----------|
|------------0-----------|------------------------|------------------------|------------------------|

 
 E   E   E   Q.           E   E   E   E   E   E    E   E   E   E   E   E    E   E   E   E   E   E
|----0---2---0-----------|0---2---3---5-------5---|7---5---3---2-------2---|0---2---3---------------|
|3-----------0-----------|0-----------3-----------|0-----------3-----------|0-----------1-------1---|
|0-----------0-----------|0-----------2-----------|0-----------2-----------|0-----------0---0-------|
|------------------------|----------------0-------|----------------0-------|------------------------|

 
 E   E   E   E   E   E    E   E   E   E   E   E    E   E   E   E   E   E    E   E   E   E   E   E 
|----7---5---3---2-------|0---2---3---5-------5---|7---5---3---2---0-------|----7---5---3---2---0---|
|0-----------0-------3---|0-----------3-----------|0-----------3-------3---|1-----------1-----------|
|0-----------------------|0-----------2-----------|0-----------2-----------|0-----------0-----------|
|------------0-----------|----------------0-------|------------------------|------------------------|
 
 E   E   E   E   E   E     E   E   E   E   E   E    E   E   E   E   E   E    E   E   E   E   E   E
|----0---2---0-----------||10----------10------8---|7-------------------7---|10------------------8---|
|3-------------------8---||7-------7---------------|0-------10--8-----------|7---7-------10----------|
|0-----------0-----------||------------------------|0-----------------------|------------------------|
|----------------0-------||0---0-----------0-------|----0-----------0-------|0-------0-------0-------|

 
 E   E   E   Q.           E   E   E   E   E   E    E   E   E   E   E   E    E   E   E   E   E   E
|7-----------------------|10----------10------8---|7-------------------7---|5---------------2---3---|
|0-------10--8-----------|7-------7---------------|0-------10--8-----------|2---2-------5-----------|
|8---8-------------------|------------------------|0-----------------------|2-------2---------------|
|------------0-----------|0---0-----------0-------|----0-----------0-------|------------------------|
 

 E   E   E   Q.           E   E   E   E   E   E    E   E   E   E   E   E    E   E   E   E   E   E
|2-----------------------|10----------10------8---|7-------------------7---|10------------------8---|
|3---3-------3-----------|7-------7---------------|0-------10--8-----------|7---7-------10----------|
|2-------2---------------|------------------------|0-----------------------|------------------------|
|------------0-----------|0---0-----------0-------|----0-----------0-------|0-------0-------0-------|

 
 E   E   E   Q.           E   E   E   E   E   E    E   E   E   E   E   E    E   E   E   E   E   E
|7-----------------------|7-----------7-------5---|3-------2---0-------3---|2---0---2---6-------6---|
|0-------10--8-----------|0---0-----------0-------|0---------------0-------|1---------------7-------|
|8---8-------------------|------------------------|----0-------------------|2-----------------------|
|------------0-----------|4-------4---------------|2-----------------------|------------0-----------|
 
                 
 E   E   E   Q.          
|7-----------6-----------|
|7---7-------7----------*|
|6-------6---6----------*|
|------------------------|


Legend:
W - whole note/rest
H - half note/rest
Q - quarter note/rest
E - eighth note/rest
. - dotted note
        
Comments

@CaptainZM (June 07, 2014 at 7:59 PM)

I like this a lot. I think it turned out really nicely.


@auriplane (June 08, 2014 at 1:08 PM)

As an aside, the actual title is Rose of May