Gametabs
Home
Tabs
Random

Within the Giant

Average rating: 5.000

1 ratings

Composer:

Tabber:

Style:

Instrument:

Created: March 14, 2010 at 12:00 AM

            Within the Giant - Final Fantasy IV
Tabbed by Ranulf
Composed by Nobuo Uematsu

e|-------------------------------11---------------11h13(p)11-----11-----11-13-15--18-17--15-13-15-|
B|--15--11------13---15--11-----------15--11------------------15----13----------------------------|
G|----------12---------------12---------------12--------------------------------------------------|
D|------------------------------------------------------------------------------------------------|
A|------------------------------------------------------------------------------------------------|
E|------------------------------------------------------------------------------------------------|

|--15--13----------------15-13-18-------------------------------------15-|
|---------16-13-------13----------15-----16--15-13-------------13-15-----|
|---------------12-13------------------------------12----12-13-----------|
|-----------------------------------------------------15-----------------|
|------------------------------------------------------------------------|
|------------------------------------------------------------------------|

|--15--13----------------15-13-18---------------------------------13--16-15-13--11----|
|---------16-13-------13----------15-----16--15-13-------------13-------------------18|
|---------------12-13------------------------------12----12-13------------------------|
|-----------------------------------------------------15------------------------------|
|-------------------------------------------------------------------------------------|
|-------------------------------------------------------------------------------------|

Repeat as many times as you want, and you should definitely add slides and bends into it.

     Legend
-----------------
h - hammer on
(p) - slowly pull off

        
Comments

@BacardiBreezer (August 20, 2010 at 10:26 AM)

This is great! Thanks :)


@Ranulf (October 12, 2010 at 1:00 AM)

At the very last part where it goes

|-16-15-13--11----|
|---------------18|
|-----------------|
|-----------------|
|-----------------|
|-----------------|

It should be

|-16-<strong>14</strong>-13--11--<strong>13</strong>|
|-----------------|
|-----------------|
|-----------------|
|-----------------|
|-----------------|

And thank you for the comment BacardiBreezer