Gametabs
Home
Tabs
Random

Troian Beauty

Average rating: No ratings

Composer:

Tabber:

Style:

Instrument:

Created: September 28, 2008 at 12:00 AM

                        Final Fantasy IV (SNES) - Troian Beauty BASS TAB
                          Song by Nobuo Uematsu

                 Tabbed by auriplane ([email protected])


Four-string bass, standard tuning.  

G |------------|------------|------------|------------|
D |-----------   Rest for four measures    -----------|
A |-----------                             -----------|
E |------------|------------|------------|------------|

G |------------|12----------|----10------|------------|
D |--------12--|------------|--------10--|--------10--|
A |10----------|------------|------------|8-----------|
E |------------|------------|------------|------------|

G |------------|9-----------|------------|------------|
D |--------9---|------------|10----------|--------10--|
A |7-----------|------------|------------|------------|
E |------------|------------|------------|8-----------|

G |7-----------|8-----------|9-----------|10----------|
D |------------|------------|------------|------------|
A |------------|------------|------------|------------|
E |------------|------------|------------|------------|

G |------------|------------|------------|12----------|
D |10----------|------------|------------|--------9---|
A |------------|------------|10----------|------------|
E |------------|------------|------------|------------|

G |------------|------------|------------|12--10--8---|
D |10----------|------------|------------|------------|
A |------------|------------|10----------|------------|
E |------------|------------|------------|------------|

G |------------|------------|--------9---|--------12--|
D |12----9-----|------------|------------|----10------|
A |--------10--|9-----------|7-----------|8-----------|
E |------------|------------|------------|------------|

G |------------|------------|------------|12----------|
D |10----------|------------|------------|--------9---|
A |------------|------------|10----------|------------|
E |------------|------------|------------|------------|

G |------------|------------|------------|12----------|
D |10----------|------------|------------|----10--12--|
A |------------|------------|10----------|------------|
E |------------|------------|------------|------------|

G |------------|------------|------------|------------|
D |13------13--|13----------|13------13--|13----------|
A |------------|------------|------------|--------12--|
E |------------|------------|------------|------------|

G |------------|------------|------------|------------|
D |12----------|------------|------------|12----------|
A |------------|12----------|------------|----12--9---|
E |------------|------------|10----------|------------|

        
Comments

No comments yet