Gametabs
Home
Tabs
Random

Tower of Bab-Il

Average rating: No ratings

Composer:

Tabber:

Style:

Instrument:

Created: September 03, 2009 at 12:00 AM

                            Final Fantasy IV - Tower of Bab-Il BASS TAB
                          Song by Nobuo Uematsu
 
                  Tabbed by auriplane ([email protected])
 

I made two versions, a four-string version (normal), and a five-string
version (an octave down).  Scroll down for the five-string tab.



                            FOUR-STRING VERSION

    Part A     (2x)

G |------------------------------------|------------------------------------|
D |10----------------10----------------|10----------------10----------------|
A |---------10----------------10-------|---------10----------------10-------|
E |------------------------------------|------------------------------------|

G |------------------------------------|------------------------------------|
D |---------10----------------10-------|---------10----------------10-------|
A |8-----------------8-----------------|8-----------------8-----------------|
E |------------------------------------|------------------------------------|

G |8-----------------8-----------------|8-----------------8-----------------|
D |---------8-----------------8--------|---------8-----------------8--------|
A |------------------------------------|------------------------------------|
E |------------------------------------|------------------------------------|

G |---------8-----------------8--------|---------8-----------------8--------|
D |------------------------------------|------------------------------------|
A |11----------------11----------------|11----------------11----------------|
E |------------------------------------|------------------------------------|

    Part B     (2x)

G |------------------------------------|------------------------------------|
D |------------------------------------|---------------------------8--------|
A |------------------------------------|------------------------------------|
E |11-------11-11-11-11----------------|11-------11-11-11-11----------------|

G |------------------------------------|------------------------------------|
D |------------------------------------|------------------------------------|
A |8--------8--8--8--8-----------------|8--------8--8--8--10-10-10-12-12-12-|
E |------------------------------------|------------------------------------|

    Part C

G |------------------------------------|---------------------------13-------|
D |------------------------------------|---------------------13-------------|
A |11-------11-11-11-11----------------|11-------11-11-11-11----11-------11-|
E |------------------------------------|------------------------------------|

G |------------------------------------|------------------------------------|
D |------------------------------------|------------------------------------|
A |10-------10-10-10-10----------------|10-------10-10-10-11-11-11-13-13-13-|
E |------------------------------------|------------------------------------|

G |------------------------------------|---------------------------13-------|
D |------------------------------------|---------------------13-------------|
A |11-------11-11-11-11----------------|11-------11-11-11-11----11-------11-|
E |------------------------------------|------------------------------------|

G |------------------------------------|------------------------------------|
D |------------------------------------|------------------12-12-12-9--9--9--|
A |10-------10-10-10-10----------------|10-------10-10-10-------------------|
E |------------------------------------|------------------------------------|




                    FIVE-STRING VERSION


    Part A     (2x)

G |------------|------------|------------|------------|
D |------------|------------|------------|------------|
A |3-----3-----|3-----3-----|---3-----3--|---3-----3--|
E |---3-----3--|---3-----3--|------------|------------|
B |------------|------------|6-----6-----|6-----6-----|

G |------------|------------|------------|------------|
D |------------|------------|------------|------------|
A |6-----6-----|6-----6-----|---6-----6--|---6-----6--|
E |---6-----6--|---6-----6--|4-----4-----|4-----4-----|
B |------------|------------|------------|------------|

    Part B     (2x)

G |------------|------------|------------|------------|
D |------------|------------|------------|------------|
A |------------|------------|------------|------------|
E |------------|---------6--|------------|------333555|
B |4--4444-----|4--4444-----|6--6666-----|6--666------|

    Part C

G |------------|------------|------------|------------|
D |------------|---------6--|------------|------------|
A |------------|-------6----|------------|------------|
E |4--4444-----|4--4444-4--4|3--3333-----|3--333444666|
B |------------|------------|------------|------------|

G |------------|------------|------------|------------|
D |------------|---------6--|------------|------------|
A |------------|-------6----|------------|------555222|
E |4--4444-----|4--4444-4--4|3--3333-----|3--333------|
B |------------|------------|------------|------------|

        
Comments

No comments yet