Gametabs
Home
Tabs
Random

Theme of Suspicion

Average rating: No ratings

Composer:

Tabber:

Style:

Instrument:

Created: June 16, 2010 at 12:00 AM

            Song: Theme Of Suspicion
Game: Final Fantasy IV
Composer: Nobuo Uematsu
Tabbed by: Daugreano

The Guitar repeats from the beginning after the last whole measure...the Bass just does the same thing 
throughout...

Guitar:
 
   H     H       H     H       H     Q    Q      H     H       H     H       W
E|-------------|-------------|-----------------|-------------|-------------|--------|
B|-------------|-11----9-----|-8-----6----9----|-8-----5-----|-6-----------|--------|
G|-------3-----|-------------|-----------------|-------------|-------3-----|--------|
D|-------------|-------------|-----------------|-------------|-------------|--------|
A|-------------|-------------|-----------------|-------------|-------------|--------|
E|-------------|-------------|-----------------|-------------|-------------|--------|

   W        W        H     H       H     H       H     Q    Q      H     H       W
E|--------|--------|-------------|-------------|-----------------|-------------|--------|
B|--------|--------|-------------|-11----9-----|-8-----6----9----|-8-----5-----|-6------|
G|--------|--------|-------3-----|-------------|-----------------|-------------|--------|
D|--------|--------|-------------|-------------|-----------------|-------------|--------|
A|--------|--------|-------------|-------------|-----------------|-------------|--------|
E|--------|--------|-------------|-------------|-----------------|-------------|--------|

   W        W        W        H     H       H     H       H     Q    Q      H     H
E|--------|--------|--------|-------------|-------------|-----------------|-------------|
B|-11-----|--------|--------|-------------|-11----9-----|-8-----6----9----|-8-----5-----|
G|--------|--------|--------|-------3-----|-------------|-----------------|-------------|
D|--------|--------|--------|-------------|-------------|-----------------|-------------|
A|--------|--------|--------|-------------|-------------|-----------------|-------------|
E|--------|--------|--------|-------------|-------------|-----------------|-------------|



Bass: 
   Q       Q       H       Q       Q       H       Q       Q       H       Q       Q       H
G|-----------------------|-----------------------|-----------------------|-----------------------|
D|-----------------------|-----------------------|-----------------------|-----------------------|
A|-1-------1-------------|-1-------1-------------|-1-------1-------------|-1-------1-------------|
E|-----------------------|-----------------------|-----------------------|-----------------------|
   Q       Q       H       Q       Q       H       Q       Q       H       Q       Q       H
G|-----------------------|-----------------------|-----------------------|-----------------------|
D|-----------------------|-----------------------|-----------------------|-----------------------|
A|-1-------1-------------|-1-------1-------------|-1-------1-------------|-1-------1-------------|
E|-----------------------|-----------------------|-----------------------|-----------------------|

   Q       Q       H       Q       Q       H       Q       Q       H       Q       Q       H
G|-----------------------|-----------------------|-----------------------|-----------------------|
D|-----------------------|-----------------------|-----------------------|-----------------------|
A|-1-------1-------------|-1-------1-------------|-1-------1-------------|-1-------1-------------|
E|-----------------------|-----------------------|-----------------------|-----------------------|

   Q       Q       H       Q       Q       H       Q       Q       H       Q       Q       H
G|-----------------------|-----------------------|-----------------------|-----------------------|
D|-----------------------|-----------------------|-----------------------|-----------------------|
A|-1-------1-------------|-1-------1-------------|-1-------1-------------|-1-------1-------------|
E|-----------------------|-----------------------|-----------------------|-----------------------|

   Q       Q       H       Q       Q       H       Q       Q       H       Q       Q       H
G|-----------------------|-----------------------|-----------------------|-----------------------|
D|-----------------------|-----------------------|-----------------------|-----------------------|
A|-1-------1-------------|-1-------1-------------|-1-------1-------------|-1-------1-------------|
E|-----------------------|-----------------------|-----------------------|-----------------------|




        
Comments

No comments yet