Gametabs
Home
Tabs
Random

Rydia's Theme

Average rating: 4.000

3 ratings

Composer:

Tabber:

Style:

Instrument:

Created: September 18, 2008 at 12:00 AM

            Final Fantasy IV - Rydia's Theme
Originally compsed by - Nobuo Uematsu
Artist: Junya Nakano
Date: 2008 
Tabbed by: Reinkhen

[Line 1]
e-10-12-8---10-12-8--12-12-13-10------------------]
B---------8---------------------10-13-14----------]
G-------------------------------------------------]
D-------------------------------------------------]
A-------------------------------------------------]
E-------------------------------------------------]

[Line 2]
e--10-12-8-10-12-8--12-12-13-10---12-10-----------]
B-8-------8---------------------10----------------]
G-------------------------------------------------]
D-------------------------------------------------]
A-------------------------------------------------]
E-------------------------------------------------]


[Line 3]
e-15-17-------------17-19--13-12-12-10------------]
B------13-17-15-15-------13-----------------------]
G-----------------17------------------------------]
D-------------------------------------------------]
A-------------------------------------------------]
E-------------------------------------------------]

[Line 4]
e-10-12-8--10-12-15--15-13-12-10-8-10-11-8--------]
B---------8--------13-----------------------------]
G-------------------------------------------------]
D-------------------------------------------------]
A-------------------------------------------------]
E-------------------------------------------------]

[Line 5]
e--8-10-11-10-12-8--------------------------------]
B-8-------8---------------------------------------]
G-------------------------------------------------]
D-------------------------------------------------]
A-------------------------------------------------]
E-------------------------------------------------]

        
Comments

@yoshistrings (September 20, 2008 at 11:15 PM)

you should really add a 2nd guitar for the harp.


@yoshistrings (September 23, 2008 at 9:19 PM)

and who rated this 2 stars? it isn't off.


@auriplane (September 25, 2008 at 8:54 AM)

Nice! I just wish I could manage vibrato on the E string. I really want to add vibrato on those long C's. I do like the way you laid it out though, it makes it very easy to throw in slides from 10->12 and 12->13.

I do have some corrections, the last note on line 1 should be a 12, the third note on line 3 should be a 12, the fourth on line 4 should be a 14 on the G string, and on line 5 it's 10-11-8 not 8-10-11. I rated it a 5 anyway as it was very close :-)