Gametabs
Home
Tabs
Random

Main Theme

Average rating: No ratings

Composer:

Tabber:

Style:

Instrument:

Created: August 03, 2009 at 12:00 AM

            E |--------12--15--14------12--13--15--13--12-------------------------------|
B |-----13-------------15---------------------13-----13--15--13--15--13-13--|
G |--14-------------------------------------------14------------------------|
D |-------------------------------------------------------------------------|X 2
A |-------------------------------------------------------------------------|
E |-------------------------------------------------------------------------|


E |------13--12--13--17--15--13--15--12---|
B |--15---------------------------------13|
G |---------------------------------------|
D |---------------------------------------|X 2
A |---------------------------------------|
E |---------------------------------------|


E |------15--14--15--19--17--15--17--14---|------15--14--15--19--17--15--17--17|
B |--17---------------------------------15|--17--------------------------------|
G |---------------------------------------|------------------------------------|
D |---------------------------------------|------------------------------------|
A |---------------------------------------|------------------------------------|
E |---------------------------------------|------------------------------------|


E |--20--19--20--23--22--20--22--19--22--19|
B |----------------------------------------|
G |----------------------------------------|
D |----------------------------------------|
A |----------------------------------------|
E |----------------------------------------|

There you go. Oh and if you make a video please give credit for tabs please. It took me a while to make :P

Oh if there is any mistakes just message me.
        
Comments

@Ultimaion (August 03, 2009 at 10:35 PM)

My tablature has been changed! I'm taking this down.


@dfas (August 04, 2009 at 1:31 AM)

I've always wanted someone to make the arpeggios for this song, but another one comes without it. I better start on it then.