Gametabs
Home
Tabs
Random

Long Way to Go

Average rating: 4.000

1 ratings

Composer:

Tabber:

Style:

Instrument:

Created: April 28, 2011 at 12:00 AM

            Rhythm part
Play all along

E |--0-----------0-------------------------------------|
B |--0-----------0-----------3-----3-----------3-------|
G |--0-----------0-----------2-----2-----------4-------|
D |--2-----------2-----------4-----4-----------4-------|
A |--------------------------5-----5-----------5-------|
E |----------------------------------------------------|

                                                     
--0-----------0-----------2-----2-----------2-------|
--0-----------0-----------2-----2-----------2-------|
--0-----------0-----------2-----2-----------2-------|
--2-----------2-----------4-----4-----------4-------|
----------------------------------------------------|
----------------------------------------------------|

Melody Part

E |-------|-------|-------|-------||-------------10------------|
B |-------|-------|-------|-------||-------8--12---------------|
G |-------|-------|-------|-------||o9-------------------------|
D |-------|-------|-------|-------||o--------------------------|
A |-------|-------|-------|-------||---------------------------|
E |-------|-------|-------|-------||---------------------------|


--9--------9----------------|--------------14----12------|
-----12-10----12------------|--------12-15---------------|
----------------------------|--12------------------------|
----------------------------|----------------------------|
----------------------------|----------------------------|
----------------------------|----------------------------|


--------12-14---------------|----------------------------|
--15----------14-------10---|--------10-12---------------|
----------------------------|--12----------11------------|
----------------------------|----------------------------|
----------------------------|----------------------------|
----------------------------|----------------------------|


--------------14------------|
--------12-15----------15---|
--12------------------------|
----------------------------|
----------------------------|
----------------------------|


--12----------------------------------14-12---------|--12--||
--------------------------------------------15------|------||
----------------------------------------------------|-----o||
----------------------------------------------------|-----o||
----------------------------------------------------|------||
----------------------------------------------------|------||

Download GP file to have synth bass and choir parts (Bass are from Link_Strife07 and Choir from Ranulf)
        
Comments

@Link Strife07 (April 29, 2011 at 11:01 AM)

Nice hash! I sent you a pm by the way :)