Gametabs
Home
Tabs
Random

Chocobo's Theme

Average rating: 5.000

3 ratings

Composer:

Tabber:

Style:

Instrument:

Created: March 29, 2012 at 12:00 AM

            Title: Chocobo's Theme
Artist: Nobuo Uematsu
Album: Final Fantasy IV OST
Copyright: Squaresoft
Tabber: Hashel05
Tempo = 140

Melody

E |----|--------10------------------|----------------------------|
B |----|-----12----12---------------|-----------12-13-12-10------|
G |----|--12----------10------------|--------12-------------10---|
D |----|----------------------------|-----12---------------------|
A |----|----------------------------|----------------------------|
E |----|----------------------------|----------------------------|


--------10------------------|-----------------------13---|
-----12----12---------------|-----------12-13----13------|
--12----------10------------|--------12-------14---------|
----------------------------|-----12---------------------|
----------------------------|----------------------------|
----------------------------|----------------------------|


--10----------7-----------------10----7-------------|
--------------------8-----------------------8-------|
--------------------------9-------------------------|
----------------------------------------------------|
----------------------------------------------------|
----------------------------------------------------|


--7-----------------------7-------------------------|
--------------8-----------------------------10------|
----------------------------------------------------|
----------------------------------------------------|
----------------------------------------------------|
----------------------------------------------------|


----------------------------------------------------|
--8-----8h-10h8-------------------------------------|
--------------------10----12----------------10------|
----------------------------------------------------|
----------------------------------------------------|
----------------------------------------------------|


--------------------12----13------------------------|
-----------12-15------------------------------------|
--12----12------------------------------------------|
----------------------------------------------------|
----------------------------------------------------|
----------------------------------------------------|


--10----------7-----------------10----7-------------|
--------------------8-----------------------8-------|
--------------------------9-------------------------|
----------------------------------------------------|
----------------------------------------------------|
----------------------------------------------------|


--7-----------------------7-------------------------|
--------------8-----------------------------10------|
----------------------------------------------------|
----------------------------------------------------|
----------------------------------------------------|
----------------------------------------------------|


----------------------------------------------------|
--8-----8h-10h8-------------------------------------|
--------------------10----12----------------10------|
----------------------------------------------------|
----------------------------------------------------|
----------------------------------------------------|


--------------------12----13------------------------|
-----------12-15------------------------------------|
--12----12------------------------------------------|
----------------------------------------------------|
----------------------------------------------------|
----------------------------------------------------|


--12----------------------------------------12------|
--------------13----10----------10----13------------|
--------------------------11------------------------|
----------------------------------------------------|
----------------------------------------------------|
----------------------------------------------------|


--10----------15----------10------------------------|
--------------------------------------------12------|
----------------------------------------------------|
----------------------------------------------------|
----------------------------------------------------|
----------------------------------------------------|


----------------------------------------------------|
--13----------10----------------------10----13------|
--------------------11----------11------------------|
--------------------------12------------------------|
----------------------------------------------------|
----------------------------------------------------|


----------------------------------------------------|
--12----12h13h12----10----12------------------------|
----------------------------------------------------|
----------------------------------------------------|
----------------------------------------------------|
----------------------------------------------------|


--12----------------------------------------12------|
--------------13----10----------10----13------------|
--------------------------11------------------------|
----------------------------------------------------|
----------------------------------------------------|
----------------------------------------------------|


--10----------15----------10------------------------|
--------------------------------------------12------|
----------------------------------------------------|
----------------------------------------------------|
----------------------------------------------------|
----------------------------------------------------|


----------------------------------------------------|
--10----10h12h10----8-----10----------------8-------|
----------------------------------------------------|
----------------------------------------------------|
----------------------------------------------------|
----------------------------------------------------|


--------------------10----12----------14------------|
--10----10h12h13------------------------------------|
----------------------------------------------------|
----------------------------------------------------|
----------------------------------------------------|
----------------------------------------------------|


--10----------7-----------------10----7-------------|
--------------------8-----------------------8-------|
--------------------------9-------------------------|
----------------------------------------------------|
----------------------------------------------------|
----------------------------------------------------|


--7-----------------------7-------------------------|
--------------8-----------------------------10------|
----------------------------------------------------|
----------------------------------------------------|
----------------------------------------------------|
----------------------------------------------------|


----------------------------------------------------|
--8-----8h-10h8-------------------------------------|
--------------------10----12----------------10------|
----------------------------------------------------|
----------------------------------------------------|
----------------------------------------------------|


--------------------12----13------------------------|
-----------12-15------------------------------------|
--12----12------------------------------------------|
----------------------------------------------------|
----------------------------------------------------|
----------------------------------------------------|


--10----------7-----------------10----7-------------|
--------------------8-----------------------8-------|
--------------------------9-------------------------|
----------------------------------------------------|
----------------------------------------------------|
----------------------------------------------------|


--7-----------------------7-------------------------|
--------------8-----------------------------10------|
----------------------------------------------------|
----------------------------------------------------|
----------------------------------------------------|
----------------------------------------------------|


----------------------------------------------------|
--8-----8h-10h8-------------------------------------|
--------------------10----12----------------10------|
----------------------------------------------------|
----------------------------------------------------|
----------------------------------------------------|


--------------------12----13------------------------|
-----------12-15------------------------------------|
--12----12------------------------------------------|
----------------------------------------------------|
----------------------------------------------------|
----------------------------------------------------|


--12----------------------------------------12------|
--------------13----10----------10----13------------|
--------------------------11------------------------|
----------------------------------------------------|
----------------------------------------------------|
----------------------------------------------------|


--10----------15----------10------------------------|
--------------------------------------------12------|
----------------------------------------------------|
----------------------------------------------------|
----------------------------------------------------|
----------------------------------------------------|


----------------------------------------------------|
--13----------10----------------------10----13------|
--------------------11----------11------------------|
--------------------------12------------------------|
----------------------------------------------------|
----------------------------------------------------|


----------------------------------------------------|
--12----12h13h12----10----12------------------------|
----------------------------------------------------|
----------------------------------------------------|
----------------------------------------------------|
----------------------------------------------------|


--12----------------------------------------12------|
--------------13----10----------10----13------------|
--------------------------11------------------------|
----------------------------------------------------|
----------------------------------------------------|
----------------------------------------------------|


--10----------15----------10------------------------|
--------------------------------------------12------|
----------------------------------------------------|
----------------------------------------------------|
----------------------------------------------------|
----------------------------------------------------|


----------------------------------------------------|
--10----10h12h10----8-----10----------------8-------|
----------------------------------------------------|
----------------------------------------------------|
----------------------------------------------------|
----------------------------------------------------|


--------------------10----12----------14------------|----||
--10----10h12h13------------------------------------|----||
----------------------------------------------------|----||
----------------------------------------------------|----||
----------------------------------------------------|----||
----------------------------------------------------|----||



Harmony


E |----|----------------------------------------------------|
B |----|----------------------------------------------------|
G |----|--------------7-----------------------------5-------|
D |----|--5-------------------------------------------------|
A |----|--------------------4-----5-------------------------|
E |----|----------------------------------------------------|


----------------------------------------------------|
----------------------------------------------------|
--------------7-----------------5-----------5-------|
--5-----5-------------------------------------------|
--------------------4-----5-------------------------|
----------------------------------------------------|


----------------------------------------------------|
----------------------------------------------------|
--------------7-----------------------------5-------|
--5-------------------------------------------------|
--------------------4-----5-------------------------|
----------------------------------------------------|


----------------------------------------------------|
--------------------------------------------6-------|
--------------7-----------------5-------------------|
--5-----5-------------------------------------------|
--------------------4-----5-------------------------|
----------------------------------------------------|


----------------------------------------------------|
----------------------------------------------------|
--------------7-----------------------------5-------|
--5-------------------------------------------------|
--------------------4-----5-------------------------|
----------------------------------------------------|


----------------------------------------------------|
----------------------------------------------------|
--------------7-----------------5-----------5-------|
--5-----5-------------------------------------------|
--------------------4-----5-------------------------|
----------------------------------------------------|


----------------------------------------------------|
----------------------------------------------------|
--------------7-----------------------------5-------|
--5-------------------------------------------------|
--------------------4-----5-------------------------|
----------------------------------------------------|


----------------------------------------------------|
--------------------------------------------6-------|
--------------7-----------------5-------------------|
--5-----5-------------------------------------------|
--------------------4-----5-------------------------|
----------------------------------------------------|


----------------------------------------------------|
----------------------------------------------------|
--------------7-----------------------------5-------|
--5-------------------------------------------------|
--------------------4-----5-------------------------|
----------------------------------------------------|


----------------------------------------------------|
----------------------------------------------------|
--------------7-----------------5-----------5-------|
--5-----5-------------------------------------------|
--------------------4-----5-------------------------|
----------------------------------------------------|


----------------------------------------------------|
----------------------------------------------------|
--------------7-----------------------------5-------|
--5-------------------------------------------------|
--------------------4-----5-------------------------|
----------------------------------------------------|


----------------------------------------------------|
--------------------------------------6-----6-------|
--------------7-----------------5-------------------|
--5-----5-------------------------------------------|
--------------------4-----5-------------------------|
----------------------------------------------------|


----------------------------------------------------|
----------------------------------------------------|
--------------------------------------------5-------|
--5-----------------5-----7-------------------------|
----------------------------------------------------|
----------------------------------------------------|


----------------------------------------------------|
----------------------------------------------------|
----------------------------------------------------|
--5-----------------5-----5-----4-------------------|
--------------------------------------------5-------|
----------------------------------------------------|


----------------------------------------------------|----------------|
----------------------------------------------------|----------------|
--------------------------------------------5-------|----------------|
--5-----------------5-----7-------------------------|--5--3--2--0----|
----------------------------------------------------|----------------|
----------------------------------------------------|----------------|


----------------------------------------------------|
----------------------------------------------------|
--------------------------------------------5-------|
--5-----------------5-----7-------------------------|
----------------------------------------------------|
----------------------------------------------------|


----------------------------------------------------|
----------------------------------------------------|
----------------------------------------------------|
--5-----------------5-----5-----4-------------------|
--------------------------------------------5-------|
----------------------------------------------------|


----------------------------------------------------|
----------------------------------------------------|
--------------4-----5-----------------4-----5-------|
--3-----3-----------------3-----3-------------------|
----------------------------------------------------|
----------------------------------------------------|


----------------------------------------------------|
----------------------------------------------------|
--2-----2-------------------------------------------|
--------------2-----4-------------------------------|
--------------------------------5-------------------|
----------------------------------------------------|


----------------------------------------------------|
----------------------------------------------------|
--------------7-----------------------------5-------|
--5-------------------------------------------------|
--------------------4-----5-------------------------|
----------------------------------------------------|


----------------------------------------------------|
----------------------------------------------------|
--------------7-----------------5-----------5-------|
--5-----5-------------------------------------------|
--------------------4-----5-------------------------|
----------------------------------------------------|


----------------------------------------------------|
----------------------------------------------------|
--------------7-----------------------------5-------|
--5-------------------------------------------------|
--------------------4-----5-------------------------|
----------------------------------------------------|


----------------------------------------------------|
--------------------------------------------6-------|
--------------7-----------------5-------------------|
--5-----5-------------------------------------------|
--------------------4-----5-------------------------|
----------------------------------------------------|


----------------------------------------------------|
----------------------------------------------------|
--------------7-----------------------------5-------|
--5-------------------------------------------------|
--------------------4-----5-------------------------|
----------------------------------------------------|


----------------------------------------------------|
----------------------------------------------------|
--------------7-----------------5-----------5-------|
--5-----5-------------------------------------------|
--------------------4-----5-------------------------|
----------------------------------------------------|


----------------------------------------------------|
----------------------------------------------------|
--------------7-----------------------------5-------|
--5-------------------------------------------------|
--------------------4-----5-------------------------|
----------------------------------------------------|


----------------------------------------------------|
--------------------------------------6-----6-------|
--------------7-----------------5-------------------|
--5-----5-------------------------------------------|
--------------------4-----5-------------------------|
----------------------------------------------------|


----------------------------------------------------|
----------------------------------------------------|
--------------------------------------------5-------|
--5-----------------5-----7-------------------------|
----------------------------------------------------|
----------------------------------------------------|


----------------------------------------------------|
----------------------------------------------------|
----------------------------------------------------|
--5-----------------5-----5-----4-------------------|
--------------------------------------------5-------|
----------------------------------------------------|


----------------------------------------------------|----------------|
----------------------------------------------------|----------------|
--------------------------------------------5-------|----------------|
--5-----------------5-----7-------------------------|--5--3--2--0----|
----------------------------------------------------|----------------|
----------------------------------------------------|----------------|


----------------------------------------------------|
----------------------------------------------------|
--------------------------------------------5-------|
--5-----------------5-----7-------------------------|
----------------------------------------------------|
----------------------------------------------------|


----------------------------------------------------|
----------------------------------------------------|
----------------------------------------------------|
--5-----------------5-----5-----4-------------------|
--------------------------------------------5-------|
----------------------------------------------------|


----------------------------------------------------|
----------------------------------------------------|
--------------4-----5-----------------4-----5-------|
--3-----3-----------------3-----3-------------------|
----------------------------------------------------|
----------------------------------------------------|


----------------------------------------------------|----||
----------------------------------------------------|----||
--2-----2-------------------------------------------|----||
--------------2-----4-------------------------------|----||
--------------------------------5-------------------|----||
----------------------------------------------------|----||




Rhythm

                      ^     ^  v  ^     ^  v       ^  v  ^  v     ^  v  ^     
E |----------------|----------------------------|-----------------5--5-------|
B |----------------|--------------6-----6--6----|-----------6-----6--6-------|
G |----------------|--4-----4--4--5-----5--5----|--4--4--4--5-----5--5--x----|
D |----------------|--5-----5--5--7-----7--7----|--5--5--5--7-----7--7--x----|
A |----------------|--5-----5--5--5-----5--5----|--5--5--5--5-----------x----|
E |----------------|--3-----3--3----------------|--3--3--3-------------------|

  ^     ^  v  ^     ^  v       ^  v  ^  v     ^  v  ^     
----------------------------|-----------------5--5-------|
--------------6-----6--6----|-----------6-----6--6-------|
--4-----4--4--5-----5--5----|--4--4--4--5-----5--5--x----|
--5-----5--5--7-----7--7----|--5--5--5--7-----7--7--x----|
--5-----5--5--5-----5--5----|--5--5--5--5-----------x----|
--3-----3--3----------------|--3--3--3-------------------|

  ^     ^  v  ^     ^  v       ^  v  ^  v     ^  v  ^     
----------------------------|-----------------5--5-------|
--------------6-----6--6----|-----------6-----6--6-------|
--4-----4--4--5-----5--5----|--4--4--4--5-----5--5--x----|
--5-----5--5--7-----7--7----|--5--5--5--7-----7--7--x----|
--5-----5--5--5-----5--5----|--5--5--5--5-----------x----|
--3-----3--3----------------|--3--3--3-------------------|

  ^     ^  v  ^     ^  v       ^  v  ^  v     ^  v  ^     
----------------------------|-----------------5--5-------|
--------------6-----6--6----|-----------6-----6--6-------|
--4-----4--4--5-----5--5----|--4--4--4--5-----5--5--x----|
--5-----5--5--7-----7--7----|--5--5--5--7-----7--7--x----|
--5-----5--5--5-----5--5----|--5--5--5--5-----------x----|
--3-----3--3----------------|--3--3--3-------------------|

  ^     ^  v  ^     ^  v       ^  v  ^  v     ^  v  ^     
----------------------------|-----------------5--5-------|
--------------6-----6--6----|-----------6-----6--6-------|
--4-----4--4--5-----5--5----|--4--4--4--5-----5--5--x----|
--5-----5--5--7-----7--7----|--5--5--5--7-----7--7--x----|
--5-----5--5--5-----5--5----|--5--5--5--5-----------x----|
--3-----3--3----------------|--3--3--3-------------------|

  ^     ^  v  ^     ^  v       ^  v  ^  v     ^  v  ^     
----------------------------|-----------------5--5-------|
--------------6-----6--6----|-----------6-----6--6-------|
--4-----4--4--5-----5--5----|--4--4--4--5-----5--5--x----|
--5-----5--5--7-----7--7----|--5--5--5--7-----7--7--x----|
--5-----5--5--5-----5--5----|--5--5--5--5-----------x----|
--3-----3--3----------------|--3--3--3-------------------|

  ^     ^  v  v     ^  v       v                 ^  v     
----------------------------|----------------------------|
--5-----------7-------------|----------------------------|
--5-----x--x--5-----x--x----|--4-----------------x--x----|
--5-----x--x--7-----x--x----|--5-----------------x--x----|
--3-----x--x--5-----x--x----|--5-----------------x--x----|
----------------------------|--3-------------------------|

  ^     ^  v  v     ^  v       ^  ^  ^  ^       ^     ^  v  v     ^  v     
----------------------------|----------------|----------------------------|
--5-----------7-------------|----------------|--5-----------7-------------|
--5-----x--x--5-----x--x----|--4--4--4--4----|--5-----x--x--5-----x--x----|
--5-----x--x--7-----x--x----|--5--5--5--5----|--5-----x--x--7-----x--x----|
--3-----x--x--5-----x--x----|--5--5--5--5----|--3-----x--x--5-----x--x----|
----------------------------|--3--3--3--3----|----------------------------|

  v                 ^  v       ^                 ^  v     
----------------------------|----------------------------|
----------------------------|----------------------------|
--4-----------------x--x----|--2-----------------x--x----|
--5-----------------x--x----|--3-----------------x--x----|
--5-----------------x--x----|--3-----------------x--x----|
--3-------------------------|--1-------------------------|

  ^     ^  v  ^     ^  v       ^     ^  v  ^     ^  v     
----------------------------|----------------------------|
--------------7-------------|--------------6-----6--6----|
--5-----x--x--6-----x--x----|--4-----4--4--5-----5--5----|
--5-----x--x--7-----x--x----|--5-----5--5--7-----7--7----|
--7-----x--x--5-----x--x----|--5-----5--5--5-----5--5----|
--5-------------------------|--3-----3--3----------------|

  ^  v  ^  v     ^  v  ^       ^     ^  v  ^     ^  v     
-----------------5--5-------|----------------------------|
-----------6-----6--6-------|--------------6-----6--6----|
--4--4--4--5-----5--5--x----|--4-----4--4--5-----5--5----|
--5--5--5--7-----7--7--x----|--5-----5--5--7-----7--7----|
--5--5--5--5-----------x----|--5-----5--5--5-----5--5----|
--3--3--3-------------------|--3-----3--3----------------|

  ^  v  ^  v     ^  v  ^       ^     ^  v  ^     ^  v     
-----------------5--5-------|----------------------------|
-----------6-----6--6-------|--------------6-----6--6----|
--4--4--4--5-----5--5--x----|--4-----4--4--5-----5--5----|
--5--5--5--7-----7--7--x----|--5-----5--5--7-----7--7----|
--5--5--5--5-----------x----|--5-----5--5--5-----5--5----|
--3--3--3-------------------|--3-----3--3----------------|

  ^  v  ^  v     ^  v  ^       ^     ^  v  ^     ^  v     
-----------------5--5-------|----------------------------|
-----------6-----6--6-------|--------------6-----6--6----|
--4--4--4--5-----5--5--x----|--4-----4--4--5-----5--5----|
--5--5--5--7-----7--7--x----|--5-----5--5--7-----7--7----|
--5--5--5--5-----------x----|--5-----5--5--5-----5--5----|
--3--3--3-------------------|--3-----3--3----------------|

  ^  v  ^  v     ^  v  ^       ^     ^  v  v     ^  v     
-----------------5--5-------|----------------------------|
-----------6-----6--6-------|--5-----------7-------------|
--4--4--4--5-----5--5--x----|--5-----x--x--5-----x--x----|
--5--5--5--7-----7--7--x----|--5-----x--x--7-----x--x----|
--5--5--5--5-----------x----|--3-----x--x--5-----x--x----|
--3--3--3-------------------|----------------------------|

  v                 ^  v       ^     ^  v  v     ^  v       ^  ^  ^  ^     
----------------------------|----------------------------|----------------|
----------------------------|--5-----------7-------------|----------------|
--4-----------------x--x----|--5-----x--x--5-----x--x----|--4--4--4--4----|
--5-----------------x--x----|--5-----x--x--7-----x--x----|--5--5--5--5----|
--5-----------------x--x----|--3-----x--x--5-----x--x----|--5--5--5--5----|
--3-------------------------|----------------------------|--3--3--3--3----|

  ^     ^  v  v     ^  v       v                 ^  v     
----------------------------|----------------------------|
--5-----------7-------------|----------------------------|
--5-----x--x--5-----x--x----|--4-----------------x--x----|
--5-----x--x--7-----x--x----|--5-----------------x--x----|
--3-----x--x--5-----x--x----|--5-----------------x--x----|
----------------------------|--3-------------------------|

  ^                 ^  v       ^     ^  v  ^     ^  v
----------------------------|----------------------------|----------------||
----------------------------|--------------7-------------|----------------||
--2-----------------x--x----|--5-----x--x--6-----x--x----|----------------||
--3-----------------x--x----|--5-----x--x--7-----x--x----|----------------||
--3-----------------x--x----|--7-----x--x--5-----x--x----|----------------||
--1-------------------------|--5-------------------------|----------------||




Bass

G |----|----|----|----|----|----------------------------|
D |----|----|----|----|----|----------------------------|
A |----|----|----|----|----|--5-------------------------|
E |----|----|----|----|----|----------------------------|


----------------------------|----------------------------|
----------------------------|----------------------------|
--5--5----------------------|--5-------------------------|
----------------------------|----------------------------|


----------------------------|----------------------------|
----------------------------|----------------------------|
--5--5----------------------|--5-------------------------|
----------------------------|----------------------------|


----------------------------|----------------------------|
----------------------------|----------------------------|
--5--5----------------------|--5-------------------------|
----------------------------|----------------------------|


----------------------------|----------------------------|
----------------------------|----------------------------|
--5--5----------------------|-----------------------4----|
----------------------------|----------------------------|


----------------------------|----------------------------|----------------|
----------------------------|----------------------------|----------------|
--5--------5--5--4----------|-----------------------4----|--5--3--2-------|
----------------------------|----------------------------|----------------|


----------------------------|----------------------------|
----------------------------|----------------------------|
-----------------------4----|--5--------5--5--4----------|
----------------------------|----------------------------|


----------------------------|----------------------------|
--------4--5--------4--5----|--2--2----------------------|
--3--3--------3--3----------|--------2--5--4-------------|
----------------------------|----------------------------|


----------------------------|----------------------------|
----------------------------|----------------------------|
--5-------------------------|--5--5----------------------|
----------------------------|----------------------------|


----------------------------|----------------------------|
----------------------------|----------------------------|
--5-------------------------|--5--5----------------------|
----------------------------|----------------------------|


----------------------------|----------------------------|
----------------------------|----------------------------|
--5-------------------------|--5--5----------------------|
----------------------------|----------------------------|


----------------------------|----------------------------|
----------------------------|----------------------------|
--5-------------------------|--5--5----------------------|
----------------------------|----------------------------|


----------------------------|----------------------------|
----------------------------|----------------------------|
-----------------------4----|--5--------5--5--4----------|
----------------------------|----------------------------|


----------------------------|----------------|----------------------------|
----------------------------|----------------|----------------------------|
-----------------------4----|--5--3--2-------|-----------------------4----|
----------------------------|----------------|----------------------------|


----------------------------|----------------------------|
----------------------------|--------4--5--------4--5----|
--5--------5--5--4----------|--3--3--------3--3----------|
----------------------------|----------------------------|


----------------------------|----||
--2--2----------------------|----||
--------2--5--4-------------|----||
----------------------------|----||
        
Comments

@Kulniti (March 30, 2012 at 9:31 AM)

Wonderful!!! I like this.


@Bessem (August 12, 2014 at 4:43 PM)

epic