Gametabs
Home
Tabs
Random

Rising Sun

Average rating: No ratings

Composer:

Tabber:

Style:

Instrument:

Created: October 23, 2008 at 12:00 AM

                               Final Fantasy Adventure - Rising Sun TAB
                              Song by Kenji Ito

                   Tabbed by auriplane ([email protected])

A recording of the song can be found here: http://www.gametabs.net/recordings/auriplane/final-fantasy-adventure-ris...

This game is also called "Seiken Densetsu", and is the first game of
the Mana series.  This is the opening theme, for two guitars and bass.
The bass is transposed one octave down.

   Gtr I
e |---15-------|------------|------------|13----------|
B |15----17----|------------|---------17-|---17-15-13-|
G |------------|------------|------------|------------|
D |------------|------------|------------|------------|
A |------------|------------|------------|------------|
E |------------|------------|------------|------------|

e |---15-------|------------|------------|------------|
B |15----17----|------------|---------13-|---13-------|
G |------------|------------|------------|16----16-12-|
D |------------|------------|------------|------------|
A |------------|------------|------------|------------|
E |------------|------------|------------|------------|

e |------------|------------|------------|------------|
B |------------|---------13-|15----------|---------13-|
G |14----------|---14-16----|------14----|16----------|
D |------------|------------|------------|------------|
A |------------|------------|------------|------------|
E |------------|------------|------------|------------|

e |------------|------------|
B |15----------|13----15----|
G |------------|------------|
D |------------|------------|
A |------------|------------|
E |------------|------------|

e |---15-------|------------|------------|13----------|
B |15----17----|------------|---------17-|---17-15-13-|
G |------------|------------|------------|------------|
D |------------|------------|------------|------------|
A |------------|------------|------------|------------|
E |------------|------------|------------|------------|

e |---15-------|------------|------------|------------|
B |15----17----|------------|---------13-|---13-------|
G |------------|------------|------------|16----16-12-|
D |------------|------------|------------|------------|
A |------------|------------|------------|------------|
E |------------|------------|------------|------------|

e |------------|------------|------------|------------|
B |------------|---------13-|15----17----|15-------13-|
G |14----------|---14-16----|------------|------------|
D |------------|------------|------------|------------|
A |------------|------------|------------|------------|
E |------------|------------|------------|------------|

e |------------|------------|------------|------------|
B |13----------|------------|------------|------------|
G |------------|------------|------------|------------|
D |------------|------------|------------|------------|
A |------------|------------|------------|------------|
E |------------|------------|------------|------------|


   Gtr II
e |------------|------------|------------|5-----------|
B |------------|5-----------|------5-----|---8--6--5--|
G |------5--7--|---7--5-----|---------5--|------------|
D |---5--------|---------5--|---5--------|------------|
A |------------|------------|------------|------------|
E |------------|------------|------------|------------|

e |------------|5-----------|------------|------------|
B |---------5--|---5-----5--|------5-----|8-----------|
G |------5-----|------7-----|5-----------|------7-----|
D |---7--------|------------|------------|------------|
A |------------|------------|------------|------------|
E |------------|------------|------------|------------|

e |------------|------------|------------|------5-----|
B |------6--8--|6-----8-----|7--5--7--8--|7-----------|
G |---5--------|------------|------------|------------|
D |------------|------------|------------|------------|
A |------------|------------|------------|------------|
E |------------|------------|------------|------------|

e |------------|------------|
B |------8-----|6-----8-----|
G |---7-----7--|---5-----7--|
D |------------|------------|
A |------------|------------|
E |------------|------------|

e |------------|------------|------------|5-----------|
B |------------|5-----------|------5-----|---8--6--5--|
G |------5--7--|---7--5-----|---------5--|------------|
D |---5--------|---------5--|---5--------|------------|
A |------------|------------|------------|------------|
E |------------|------------|------------|------------|

e |------------|5-----------|------------|------------|
B |---------5--|---5-----5--|------5-----|8-----------|
G |------5-----|------7-----|5-----------|------7-----|
D |---7--------|------------|------------|------------|
A |------------|------------|------------|------------|
E |------------|------------|------------|------------|

e |------------|------------|------5-----|7--5--------|
B |------6--8--|6-----8-----|6-----------|------8--6--|
G |---5--------|------------|------------|------------|
D |------------|------------|------------|------------|
A |------------|------------|------------|------------|
E |------------|------------|------------|------------|

e |------------|------------|------------|------------|
B |------------|5-----------|------------|5-----5--6--|
G |------5--7--|---7--5-----|------5--7--|---7--------|
D |---5--------|---------5--|---5--------|------------|
A |------------|------------|------------|------------|
E |------------|------------|------------|------------|


   Bass
G |------------|------------|------------|------------|
D |------------|------------|------------|------------|
A |3-----------|------------|3-----------|------2-----|
E |------------|------3-----|------------|------------|

G |------------|------------|------------|------------|
D |------------|------2-----|------------|------------|
A |0-----------|------------|0-----------|------------|
E |------------|------------|------------|3-----------|

G |------------|------------|------------|------2-----|
D |3-----------|------2-----|0-----------|------------|
A |------------|------------|------------|------------|
E |------------|------------|------------|------------|

G |0-----------|------------|
D |------------|------------|
A |------------|0-----2-----|
E |------3-----|------------|

G |------------|------------|------------|------------|
D |------------|------------|------------|------------|
A |3-----------|------------|3-----------|------2-----|
E |------------|------3-----|------------|------------|

G |------------|------------|------------|------------|
D |------------|------2-----|------------|------------|
A |0-----------|------------|0-----------|------------|
E |------------|------------|------------|3-----------|

G |------------|------------|------------|0-----------|
D |3-----------|------2-----|0-----------|------------|
A |------------|------------|------------|------------|
E |------------|------------|------------|------3-----|

G |------------|------------|------------|------------|
D |------------|------------|------------|------------|
A |3-----------|------------|3-----------|------------|
E |------------|------3-----|------------|3-----------|



        
Comments

No comments yet