Gametabs
Home
Tabs
Random

In Search of the Holy Sword

Average rating: 5.000

4 ratings

Composer:

Tabber:

Style:

Instrument:

Created: October 15, 2011 at 12:00 AM

            Name: In Search of the Holy Sword
Game: Seiken Densetsu
Artist: Mintjam
Tabber: CpxAzn
Date: 10/15/2011


     S S S S S S S S S S S S S S S S    S S S S S S S S S S S S S S S S  
E||----------7-----------7-----------|--7-----------7-----------7-------|
B||------5-----------5-----------5---|----------5-----------5-------5---|
G||--6-----------6-----------6-------|------6-----------6---------------|
D||----------------------------------|----------------------------------|
A||----------------------------------|----------------------------------|
E||----------------------------------|----------------------------------|


  S S S S S S S S S S S S S S S S    S S S S S S S S S S S S S S S S  
----------7-----------5-----------|--4-----------5---7---5---4-------|
------5-----------5-------5-------|------5-----------------------5---|
--6-----------6---------------6---|----------6-----------------------|
----------------------------------|----------------------------------|
----------------------------------|----------------------------------|
----------------------------------|----------------------------------|


  S S S S S S S S S S S S S S S S    S S S S S S S S S S S S S S S S  
----------7-----------7-----------|--7-----------7-----------7-------|
------5-----------5-----------5---|----------5-----------5-------5---|
--6-----------6-----------6-------|------6-----------6---------------|
----------------------------------|----------------------------------|
----------------------------------|----------------------------------|
----------------------------------|----------------------------------|


  S S S S S S S S S S S S S S S S    S S S S S S S S S S S S S S S S  
----------7-----------5-----------|--9-------7-------5-------4-------|
------5-----------5-------5---5---|------5-------5-------5-------5---|
--6-----------6-------------------|----------------------------------|
----------------------------------|----------------------------------|
----------------------------------|----------------------------------|
----------------------------------|----------------------------------|


                      PH                               PH         
  E  S S E  S S S S   Q     S S    E  S S E  S S S S   Q     S S  
--------------------------------|--------------------------------|
--------------------------------|--------------------------------|
--------------------------------|--------------------------------|
---------4--2-2-2-2-<>4~--------|--------------------------------|
--------------------------------|---------4--2-2-2-2-<>4~----4-4-|
--2--2-2--------------------2-2-|--0--0-0------------------------|


  Q    E  S S S S Q    S S    E.  E.   E.  S S S S S S S  
---------------------------|-----------------------------|
---------------------------|-----------------------------|
---------------------------|-----------------------------|
--7----7------6-6-7--------|-----------------------------|
--5----5--5-5-5-5-5----5-5-|--7------------------2-0-----|
---------------------------|------7b---0---0-2-4-----4-2-|


                      PH                               PH         
  E  S S E  S S S S   Q     S S    E  S S E  S S S S   Q     S S  
--------------------------------|--------------------------------|
--------------------------------|--------------------------------|
--------------------------------|--------------------------------|
---------4--2-2-2-2-<>4~--------|--------------------------------|
--------------------------------|---------4--2-2-2-2-<>4~----4-4-|
--2--2-2--------------------2-2-|--0--0-0------------------------|


  Q    E  S S S S Q    S S    E.  E.  E  S  S S  S S  S S  S  
-----------------------0-0-|---------------------------------|
---------------------------|---------------------------------|
---------------------------|-----------------------9---------|
--7----7------6-6-7--------|---------------11-9-11---11-9-11-|
--5----5--5-5-5-5-5--------|----------5--4-------------------|
---------------------------|--4---7--------------------------|


   Q.     S  S  E   E  E   E     E.   Q    S S S S S S S S S  
------------------------------|------------------------------|
--10------9-10-12--10--9--10--|--9---------------------------|
------------------------------|------11----L-7-------7-------|
------------------------------|----------------9-7-9---9-7-9-|
------------------------------|------------------------------|
------------------------------|------------------------------|


  Q.     S S  E  E  E  E     E.  Q    E.  E  E  E     E.  E.  E   Q.     S S  
--------------------------|------------------------|-------------------------|
--9------7-9-10--9--7--9--|--7---------------------|--7---9---7--10------9-7-|
--------------------------|------9--------6--7--9--|-------------------------|
--------------------------|------------------------|-------------------------|
--------------------------|------------------------|-------------------------|
--------------------------|------------------------|-------------------------|


  E.  E.  E   E.    E.  E     H        S  S S  S S  S S  S  
---------------------------|-------------------------------|
------7------10b---10---9--|--7----------------------------|
--9-------9----------------|---------------------9---------|
---------------------------|-------------11-9-11---11-9-11-|
---------------------------|-------------------------------|
---------------------------|-------------------------------|


   Q.     S  S  E   E  E   E     E.   Q    S S S S S S S S S  
------------------------------|------------------------------|
--10------9-10-12--10--9--10--|--9---------------------------|
------------------------------|------11----L-7-------7-------|
------------------------------|----------------9-7-9---9-7-9-|
------------------------------|------------------------------|
------------------------------|------------------------------|


  Q.     S S  E  E  E  E     E.  Q    E.  E  E  E     E.  E.  E   Q.     S S  
--------------------------|------------------------|-------------------------|
--9------7-9-10--9--7--9--|--7---------------------|--7---9---7--10------9-7-|
--------------------------|------9--------6--7--9--|-------------------------|
--------------------------|------------------------|-------------------------|
--------------------------|------------------------|-------------------------|
--------------------------|------------------------|-------------------------|


  E.  E.  E   E.    E.  E     H        E   E   E   E   
---------------------------|--------------------------|
------7------10b---10---9--|--7--------L------12--14--|
--9-------9----------------|--------------14----------|
---------------------------|--------------------------|
---------------------------|--------------------------|
---------------------------|--------------------------|


   H        E   E   E   E       Q     E   E    H         
----------------------------|---------------------------|
--15--------L--15--17--17b--|--17-----------------------|
----------------------------|--------16--18b--18--------|
----------------------------|---------------------------|
----------------------------|---------------------------|
----------------------------|---------------------------|


   Q     E   E   Q     Q        Q     Q     Q     Q      
----------------------------|---------------------------|
--------14--15--14----------|--------------14----15b----|
--16------------------16----|--14----16-----------------|
----------------------------|---------------------------|
----------------------------|---------------------------|
----------------------------|---------------------------|


   H        E   E   E   E       Q     E   E    H         
----------------------------|---------------------------|
--15--------L--15--17--17b--|--17-----------------------|
----------------------------|--------16--18b--18--------|
----------------------------|---------------------------|
----------------------------|---------------------------|
----------------------------|---------------------------|


   H        E   E   E   E      Q     S   S   E   Q     Q     
---------------------------|--------------------------------|
-----------------------14--|--15----14h-15p-14--------------|
--16--------L--15--16------|--------------------16----14----|
---------------------------|--------------------------------|
---------------------------|--------------------------------|
---------------------------|--------------------------------|


   H        E   E   E   E      H        S  S S  S S  S S  S  
---------------------------|--------------------------------|
---------------------------|--------------------------------|
--13--------L--11--10--11--|--13--------L---------9---------|
---------------------------|--------------11-9-11---11-9-11-|
---------------------------|--------------------------------|
---------------------------|--------------------------------|


   Q.     S  S  E   E  E   E     E.   Q    S S S S S S S S S  
------------------------------|------------------------------|
--10------9-10-12--10--9--10--|--9---------------------------|
------------------------------|------11----L-7-------7-------|
------------------------------|----------------9-7-9---9-7-9-|
------------------------------|------------------------------|
------------------------------|------------------------------|


  Q.     S S  E  E  E  E     E.  Q    E.  E  E  E     E.  E.  E   Q.     S S  
--------------------------|------------------------|-------------------------|
--9------7-9-10--9--7--9--|--7---------------------|--7---9---7--10------9-7-|
--------------------------|------9--------6--7--9--|-------------------------|
--------------------------|------------------------|-------------------------|
--------------------------|------------------------|-------------------------|
--------------------------|------------------------|-------------------------|


  E.  E.  E   E.    E.  E     Q.     E   E.  S E    E     W                 
---------------------------|---------------------------|-------------------|
------7------10b---10---9--|--7------------------------|-------------------|
--9-------9----------------|---------9b--9---6---------|-------------------|
---------------------------|-------------------9br--7--|-------------------|
---------------------------|---------------------------|--9----------------|
---------------------------|---------------------------|-------------------|


-------------------|-------------------|-------------------|
-------------------|-------------------|-------------------|
-------------------|-------------------|-------------------|
-------------------|-------------------|-------------------|
-------------------|-------------------|-------------------|
-------------------|-------------------|-------------------|


  Don't mind the timing...                         
  Q                        S  S  Q     E   E   E   
-----------------------------11-12----12--12--12--|
--------------------------------------------------|
--------------------------------------------------|
--------------------------------------------------|
--------------------------------------------------|
--------------------------------------------------|


   E   E   E   E   E  E   E  E     T   S.E  T  E  T  E.  E  T   S.E   
--12--12--12--12--10--9------9--|--9h-10-9--L------------------------|
-------------------------12-----|-------------12--L-10---9--9h-10-9--|
--------------------------------|------------------------------------|
--------------------------------|------------------------------------|
--------------------------------|------------------------------------|
--------------------------------|------------------------------------|


  E   Q     H        E     E  E  E  Q    E   E   E   
------------------------|-----------9----8----------|
--L---------------------|-------------------12--10--|
------------------------|-----6--9------------------|
-----11----11-----------|---------------------------|
------------------------|---------------------------|
------------------------|---------------------------|


       |---3---|                                                    
   E   S   S   S  E   E   E  E   E  E     E   E  E  E  E  E  E  E   
---------------------------------------|---------------------------|
--12--10h-12p-10p-9--10----------------|---------------------------|
-------------------------13--9------9--|--L--11-----6--4-----4-----|
--------------------------------11-----|------------------7-----7--|
---------------------------------------|---------------------------|
---------------------------------------|---------------------------|


  E.  E.  Q    Q    E     S  S  S S S S S  S  S S S S S  S  S S  
-----------------------|----------------------------------------|
--5--------------------|----------------------------------------|
------6---4------------|--6h-7p-6-------6h-7p-6-------6h-7p-6---|
-----------------------|----------7-------------7-------------7-|
--------------------9--|------------9-------------9-------------|
-----------------------|----------------------------------------|


  S S S  S  S S S S S   S  S S  S S  S   S   
--------------------------------------------|
------7h-9p-7-------9h-10p-9--------10h-12h-|
--------------6--------------9--------------|
----------------7-6------------11-----------|
--9-----------------------------------------|
--------------------------------------------|


   S S  S S  S   S   S  S  S S  S   S   S  S  S S  
--------------------------------------------------|
--10--------12h-14p-12---------14h-15p-14---------|
-----9-----------------11-----------------14------|
-------11-----------------12-----------------16---|
--------------------------------------------------|
--------------------------------------------------|


   S   S E   S   S E   S   S  S  S  S  S S S    W                  
---------------------------------------------|--------------------|
--14s-15----15s-17----17s-19-19-19-19-19-----|--5-----------------|
---------------------------------------------|--4b----------------|
---------------------------------------------|--------------------|
---------------------------------------------|--------------------|
---------------------------------------------|--------------------|


                                                |--3--|    
  W                   E  E  E   S  S S  S S S S S  S  S S  
-------------------|--------------------------------------|
--L----------------|--------------------------------------|
--L----------------|-----2--4b--4p-2-4p-2---2-------------|
-------------------|--4-------------------4---4-2h-4p-2---|
-------------------|------------------------------------4-|
-------------------|--------------------------------------|


  |--3-|                          
  S S  S  S S S  E    S H         
---------------------------------|
---------------------------------|
------------2-4b-4br--2-4--------|
--2-4p-2h-4----------------------|
---------------------------------|
---------------------------------|


  T T T T T T T T T T T T  T  T  T  T T T  T  T  T  T  T  T  T  T  T  T  T  T  T
--------------------------------------------------------------------------------
--7-7-7-7-7-9-9-9-9-9-9-9-10-10-10-10-9-9-10-10-12-12-12-12-10-10-12-12-14-14-14
--------------------------------------------------------------------------------
--------------------------------------------------------------------------------
--------------------------------------------------------------------------------
--------------------------------------------------------------------------------


   T  T  T  T  T  T  T  T  T  T  T  T  T  T  T  T  T  T  T  T  T  T  T  T  T  T 
--------------------------------------------------------------------------------
--12-12-14-14-14-15-15-15-15-14-14-15-15-15-17-17-17-17-15-15-15-17-17-17-19-19-
--------------------------------------------------------------------------------
--------------------------------------------------------------------------------
--------------------------------------------------------------------------------
--------------------------------------------------------------------------------


   T  T  T  T  T  T  T  T  T  T  T  T  T  T  T  T  T  T  T  T  Q      E     
--16-16-16-16-14-14-16-16-16-17-17-17-17-16-16-17-17-17-19-19-19b----19pb--|
---------------------------------------------------------------------------|
---------------------------------------------------------------------------|
---------------------------------------------------------------------------|
---------------------------------------------------------------------------|
---------------------------------------------------------------------------|


   E     E     E      S  Q    Q    S  
--19pb--19pb--19pbr--17-19----L------|
-------------------------------------|
-------------------------------------|
-------------------------------------|
-------------------------------------|
-------------------------------------|


   |--3--|  |--3--|  |--3--|  |--3--|  |--3--|  |--3--|  |--3--|  |--3--|  
   S  S  S  S  S  S  S  S  S  S  S  S  S  S  S  S  S  S  S  S  S  S  S  S  
--------17-21-17----------17-21-17----------17-21-17----------17-21-17----|
-----19----------19----19----------19----19----------19----19----------19-|
--18----------------18----------------18----------------18----------------|
--------------------------------------------------------------------------|
--------------------------------------------------------------------------|
--------------------------------------------------------------------------|


   |--3--|  |--3--|  |--3--|  |--3--|  |--3--|  |--3--|  |--3--|  |--3--|  
   S  S  S  S  S  S  S  S  S  S  S  S  S  S  S  S  S  S  S  S  S  S  S  S  
--------16-19-16----------16-19-16----------16-19-16----------16-19-16----|
-----17----------17----17----------17----17----------17----17----------17-|
--16----------------16----------------16----------------16----------------|
--------------------------------------------------------------------------|
--------------------------------------------------------------------------|
--------------------------------------------------------------------------|


   |--3--|  |--3--|  |--3--|  |--3--|  |--3--|  |--3--|      |--3--|  
   S  S  S  S  S  S  S  S  S  S  S  S  S  S  S  S  S  S  E   S  S  S  
--------14-17-14----------14-17-14----------14-17-14----17--------12-|
-----15----------15----15----------15----15----------15--------14----|
--14----------------14----------------14--------------------13-------|
---------------------------------------------------------------------|
---------------------------------------------------------------------|
---------------------------------------------------------------------|


          |---3---|   |---3---|   |---3---|   
   Q      E   E   E   E   E   E   E   E   E   
--14b----14--12----------12------------------|
-----------------15--14------15--14--12--14--|
---------------------------------------------|
---------------------------------------------|
---------------------------------------------|
---------------------------------------------|


          |---3---|   |---3---|   |---3--|          
   E      E   E   E   E   E   E   E   E  E   E      
---------------------------------------------------|
--14pbr--12----------12----------------------------|
-------------14--13------14--13--11--13-----13pbr--|
---------------------------------------------------|
---------------------------------------------------|
---------------------------------------------------|


  3                           3  
  S S  E     E   Q    Q    E  T  
--------------------------------|
--------------------------------|
--L---13pbr--L------------------|
----------------11--------------|
--------------------------------|
--------------------------------|


   T             T   T             T   T                                        
   |---3---|  |---3--|   |---3--|  |---3---|   |---3---|  |---3--|  |---3--|   |
   S   S   S  S  S   S   S   S  S  S   S   S   S   S   S  S  S   S  S  S   S   S
--17p-14p-12p-9-19p-17p-14p-12p-9-19p-17p-14p-12p-10h-12p-9-14p-12p-9-----------
----------------------------------------------------------------------14p-12p-10
--------------------------------------------------------------------------------
--------------------------------------------------------------------------------
--------------------------------------------------------------------------------
--------------------------------------------------------------------------------


   |---3---|   |---3---|   3           3                                  
   E   E   E   E   E   E   E   Q    E  S     Q.       S  S  Q.      S  S  
-----------------------------------------|--16b------16-14-12------------|
--------------------------15--17---------|-------------------------14-15-|
--------------14--16--18-----------------|-------------------------------|
--14--16--18-----------------------------|-------------------------------|
-----------------------------------------|-------------------------------|
-----------------------------------------|-------------------------------|


   E.   E.   E    Q.      S  S     E.   E.   E   E.   E.   E   
--12---------------------------|--------------------------11--|
-------15---14b--14------10-12-|--14---12------------13-------|
-------------------------------|------------14--13------------|
-------------------------------|------------------------------|
-------------------------------|------------------------------|
-------------------------------|------------------------------|


   E.    E.    E   Q    E   S  S     Q.       S  S  E.   E.   E   
--14b---14b---14--13-------------|--19b------19-17-16---17---19--|
---------------------------------|-------------------------------|
---------------------------18-18-|-------------------------------|
---------------------------------|-------------------------------|
---------------------------------|-------------------------------|
---------------------------------|-------------------------------|


   E.     E.   E   E.   E   E.        E.   S  E  E   E   E   E   E    
--16br-----------------------------|------------------------16-------|
---------17------------------------|----------------14--17------17b--|
--------------16--14---16--16brb---|--L---14-------------------------|
-----------------------------------|---------16----------------------|
-----------------------------------|---------------------------------|
-----------------------------------|---------------------------------|


           |--3--|       |--3--|       |--3--|  
  Q    E   S  S  S  E    S  S  S  E    S  S  S  
----------14------------14------------14-------|
--L----------17-14-17b-----17-14-17b-----17-14-|
-----------------------------------------------|
-----------------------------------------------|
-----------------------------------------------|
-----------------------------------------------|


   E    S  S  Q.       E   E   E      H        E   E   E   E    
-------14-18----------------------|----------------------------|
--17b--------17b----------12--14--|--15--------L--15--17--17b--|
----------------------14----------|----------------------------|
----------------------------------|----------------------------|
----------------------------------|----------------------------|
----------------------------------|----------------------------|


   Q     E   E    H            Q     E   E   Q     Q     
---------------------------|----------------------------|
--17-----------------------|--------14--15--14----------|
--------16--18b--18--------|--16------------------16----|
---------------------------|----------------------------|
---------------------------|----------------------------|
---------------------------|----------------------------|


   Q     Q     Q     Q         H        E   E   E   E    
---------------------------|----------------------------|
--------------14----15b----|--15--------L--15--17--17b--|
--14----16-----------------|----------------------------|
---------------------------|----------------------------|
---------------------------|----------------------------|
---------------------------|----------------------------|


   Q     E   E    H            H        E   E   E   E   
---------------------------|---------------------------|
--17-----------------------|-----------------------14--|
--------16--18b--18--------|--16--------L--15--16------|
---------------------------|---------------------------|
---------------------------|---------------------------|
---------------------------|---------------------------|


   Q     S   S   E   Q     Q        H        E   E   E   E   
--------------------------------|---------------------------|
--15----14h-15p-14--------------|---------------------------|
--------------------16----14----|--13--------L--11--10--11--|
--------------------------------|---------------------------|
--------------------------------|---------------------------|
--------------------------------|---------------------------|


   H        S  S S  S S  S S  S     Q.     S  S  E   E  E   E   
--------------------------------|------------------------------|
--------------------------------|--10------9-10-12--10--9--10--|
--13--------L---------9---------|------------------------------|
--------------11-9-11---11-9-11-|------------------------------|
--------------------------------|------------------------------|
--------------------------------|------------------------------|


  E.   Q    S S S S S S S S S    Q.     S S  E  E  E  E   
------------------------------|--------------------------|
--9---------------------------|--9------7-9-10--9--7--9--|
------11----L-7-------7-------|--------------------------|
----------------9-7-9---9-7-9-|--------------------------|
------------------------------|--------------------------|
------------------------------|--------------------------|


  E.  Q    E.  E  E  E     E.  E.  E   Q.     S S    E.  E.  E   E.    E.  E   
------------------------|-------------------------|---------------------------|
--7---------------------|--7---9---7--10------9-7-|------7------10b---10---9--|
------9--------6--7--9--|-------------------------|--9-------9----------------|
------------------------|-------------------------|---------------------------|
------------------------|-------------------------|---------------------------|
------------------------|-------------------------|---------------------------|


  H        S  S S  S S  S S  S     Q.     S  S  E   E  E   E   
-------------------------------|------------------------------|
--7----------------------------|--10------9-10-12--10--9--10--|
---------------------9---------|------------------------------|
-------------11-9-11---11-9-11-|------------------------------|
-------------------------------|------------------------------|
-------------------------------|------------------------------|


  E.   Q    S S S S S S S S S    Q.     S S  E  E  E  E   
------------------------------|--------------------------|
--9---------------------------|--9------7-9-10--9--7--9--|
------11----L-7-------7-------|--------------------------|
----------------9-7-9---9-7-9-|--------------------------|
------------------------------|--------------------------|
------------------------------|--------------------------|


  E.  Q    E.  E  E  E     E.  E.  E   Q.     S S    E.  E.  E   E.    E.  E   
------------------------|-------------------------|---------------------------|
--7---------------------|--7---9---7--10------9-7-|------7------10b---10---9--|
------9--------6--7--9--|-------------------------|--9-------9----------------|
------------------------|-------------------------|---------------------------|
------------------------|-------------------------|---------------------------|
------------------------|-------------------------|---------------------------|


  H        Q.      E      H         Q.      E   
-----------4-------5---|--L---------7-------L--|
--7--------7b------8b--|--L--------10b------L--|
-----------------------|-----------------------|
-----------------------|-----------------------|
-----------------------|-----------------------|
-----------------------|-----------------------|


          |--3--|  |--3--|           |-3-|             |-3-|     |-3-| |-3-|  
  E  E  S E  E  E  E  E  E  S S S    S S S S S S S S S S S S S S S S S S S S  
----------------------------------|------------------------------------------|
----------------------5-----------|------------------------------------------|
----------------2--4--------4-5-4-|--4-5-4-2-4-2---2-------------------------|
----------2--4--------------------|--------------4---4-2-4-2---2-------2-4-2-|
----------------------------------|--------------------------4---4-2-4-------|
----------------------------------|------------------------------------------|


  |-3-|                        
  S S S S H           S Q      
-----------------------------||
-----------------------------||
----2---2-4brb--------2------||
--4---4-----------------4----||
-----------------------------||
-----------------------------||




Duration Legend
---------------
W - whole
H - half
Q - quarter
E - 8th
S - 16th
T - 32nd
X - 64th
. - note dotted
|-n-|  - n-tuplets


Tablature Legend
----------------
L - tied note
x - dead note
g - grace note
(n) - ghost note
> - accentuded note
NH - natural harmonic
AH - artificial harmonic
TH - tapped harmonic
SH - semi harmonic
PH - pitch harmonic
h - hammer on
p - pull off
b - bend
br - bendRelease
pb - preBend
pbr - preBendRelease
brb - bendReleaseBend
\n/ - tremolo bar dip
\n - tremolo bar dive
-/n - tremolo bar Release up
/n\ - tremolo bar inverted dip
/n - tremolo bar return
-\n - tremolo bar Release down
S - shift slide
s - legato slide
/ -  slide into from below or out of upwards
\ -  slide into from above or out of downwards
~ - vibrato
W - wide vibrato
tr - trill
TP - tremolo picking
T - tapping
S - slap
P - pop
< - fade in
^ - brush up
v - brush down

        
Comments

@auriplane (October 15, 2011 at 8:53 AM)

The other tabs for this game are under Final Fantasy Adventure, which is the North American title for the game.


@BacardiBreezer (October 15, 2011 at 8:57 AM)

Thanks so much for tabbing this out for everyone! We need more Mintjam


@Ranulf (October 16, 2011 at 12:44 AM)

:D