Gametabs
Home
Tabs
Random

Love

Average rating: 5.000

3 ratings

Composer:

Tabber:

Style:

Instrument:

Created: April 06, 2021 at 12:00 AM

            Title: Love
Album: Fez
Music: Disasterpeace
Tabber: H.F.

Tempo = 58

Capo 1st

E |--------5--3----------------|--------0-----0-------------|
B |--------------3-------------|--------3-----3-------------|
G |--------0-----4--0----------|--------2-----1-------------|
D |-----0--------------0-------|--------------------2-------|
A |----------------------------|-----2-----2-----2----------|
E |--3--------------------3----|--0-----------0--------0----|


--------------7-------------|--------7-----8-------------|
-----------8--8-------------|--------8-----8-------------|
-----------7----------------|-----0-----------7--0-------|
--------10-------7----------|----------------------------|
--0--7--------------7--0----|----------------------------|
----------------------------|--8--------------------8----|


--------5--3----------------|--------0-----0-------------|
--------------3-------------|--------0-----3-------------|
--------0-----4--0----------|-----------2--1-------------|
-----0--------------0-------|--------------------2-------|
----------------------------|-----2-----------2----------|
--3--------------------3----|--0-----------0--------0----|


--------------7-----3-------|-----------7--8-------------|
--------1-----------3-------|--------8-------------------|
--------2--7--5--------2----|-----0--7-----9-------------|
-----2----------------------|----------------------------|
--0-------------------------|--3-------------------------|
----------------------------|--------------------8-------|


--------5-----3-------------|--------3-----0-------------|
--------3-----1-------------|--------3-----1-------------|
-----------------2----------|--------0-----2-----2-------|
-----2--------------2-------|-----2-----2-----2----------|
--0--------------------0----|--0-----------0--------0----|
----------------------------|----------------------------|


--------7-----5-------------|--------7-----5-------------|
----------------------------|--------8-----5-------------|
--------7-----5-------------|----------------------------|
-----------------7----------|-----------7-----7----------|
--0--7-----7--------7--0----|--0--7--------------7-------|
----------------------------|-----------------------3----|


--------5-----0-----0-------|-------||
--------5-----3-----0-------|--0----||
--------5-----2-----0-------|--2----||
--------3-------------------|--3----||
-----3----------------------|-------||
--1-------------------------|-------||


        
Comments

No comments yet