Gametabs
Home
Tabs
Random

Tender Moment

Average rating: 5.000

2 ratings

Composer:

Tabber:

Style:

Instrument:

Created: July 11, 2017 at 12:00 AM

                                            Tender Moment

Solo guitar arrangement based on a transcription by Coolbreeze


     Q    E  E  Q.     E     E  E  H.              Q    E  E  Q.     E   
E||--7----5--3--5------2--|--2--3--7------------|--7----5--3--5------2--|
B||--5----------3---------|--0------------------|--5----------3---------|
G||--5----------2---------|--0-----7------------|--5----------2---------|
D||--5----------0---------|--0------------------|--5----------0---------|
A||--3--------------------|---------------------|--3--------------------|
E||-----------------------|--3------------------|-----------------------|


  E  E  H.              E  E  E  E  H           E  E  E  E  Q.       E   
--2--3---------------|--3-----2--0--2--------|--5-----3--2--3------0g2--|
--0-----3------------|--5-----1-----3--------|--3-----------0-----------|
--0------------------|--------2-----2--------|--------------0-----------|
--0------------------|-----2--------0--------|-----4--------------------|
---------------------|--0--------------------|--2-----------------------|
--3------------------|-----------------------|--------------0-----------|


  E  E  E  E  Q.       E     H        H           E  E  E  E  Q.     E   
--0-----2--3--3-----------|--3--------5--------|--7-----5--3--5------2--|
--------1------------3g5--|--3--------3--------|--0-----5--0--7---------|
--------------------------|--2--------2--------|--0--0--------7---------|
-----2--------------------|--0--------0--------|--------------7---------|
--0-----------------------|--------------------|--3-----------5---------|
--------------------------|--------------------|------------------------|


  E  E  E  E  H           E  E  E  S S Q    E  E     E  E  E  E  H         
--2--3-----------------|--3-----2--0---2-------2--|--2--3--7--------------|
--------3--------------|--3-----1------0----------|--------0--------------|
--------0--4--L--------|-----------2---2----------|-----------0--L--------|
-----0-----------------|-----2-------2------1-----|-----------------------|
-----------------------|--0------------2----------|-----2--7--------------|
--3--------------------|--------------------------|--0--------------------|


  E  E  E  E  E  E  Q       E  E  E  E  E  E  E    E   
--0-----2--3--2----------|--2-----3--5--3--------0g2--|
--1-----1-----3-----3----|--3-----------5-------------|
-----------------2-------|--------------------0-------|
-----2--------0----------|-----4--------------0-------|
--0----------------------|--2--------------2----------|
-------------------------|--------------0-------------|


  E  E  E  E  E  E  Q         E  E  Q.     E  E  E     E  E  E  E  E  E  Q     
--0--------3--3-----2----|--2g3---------------------|--7-----5--3--5----------|
--------1-----3-----3----|----1-----0------------0--|--0-----0--5--7----------|
--------------2--2-------|--------------------0-----|--0--0--------------7----|
-----2--------0----------|-------0---------0--------|-----------------7-------|
--0----------------------|--------------------------|--3-----------5----------|
-------------------------|----3---------------------|-------------------------|


  W                  
--3----------------||
--3----------------||
--4----------------||
--5----------------||
--5----------------||
--3----------------||
        
Comments

No comments yet