Gametabs
Home
Tabs
Random

Masayume Chasing

Average rating: 4.000

1 ratings

Composer:

Tabber:

Style:

Instrument:

Created: April 15, 2014 at 12:00 AM

            FAIRY TAIL OPENING 15:"Masayume Chasing"

VOCAL COVER:

E|-------------------------------------------|---------------------------------------|
B|--11---10---8--6--13--11--10--11-----8-10--|--11---10---8---6---13---11---10---11--|
G|----------------------------------10-------|---------------------------------------|
D|-------------------------------------------|---------------------------------------|
A|-------------------------------------------|---------------------------------------|
E|-------------------------------------------|---------------------------------------|

(VOICE):

E|------------------------------------|------------------------------|
B|------------------------------------|------------------------------|
G|-----10--10--10--10-----------------|---------------------------7--|
D|--8------------------8--10--10--10--|--8--10--10--10--10--8--8-----|
A|------------------------------------|------------------------------|
E|------------------------------------|------------------------------|

(VOICE):

E|----------------------------------------|----------------------------|
B|----------------------------------------|----------------------------|
G|-----10--10--10--10---------------------|---------------------10--7--|
D|--8------------------8--10--10--10--10--|--8--10--10--10--10---------|
A|----------------------------------------|----------------------------|
E|----------------------------------------|----------------------------|

(VOICE):

E|--------------------------------|--------------------------------------|---------------
B|--------------------------------|--------------------------------------|---------------
G|------7--8--10--10--10--12--10--|--------------10-------------------7--|------7--8--10-
D|--10----------------------------|--10--10--10------10--7--8--10--8-----|--10-----------
A|--------------------------------|--------------------------------------|---------------
E|--------------------------------|--------------------------------------|---------------

  ----------------|----------------------------------|
  ----11--10------|--10--10--11--13--10--10--11------|
  10----------10--|------------------------------12--|
  ----------------|----------------------------------|
  ----------------|----------------------------------|
  ----------------|----------------------------------|

(VOICE):

E|------------------------------------------8--8--|----------------------------------|
B|------8--11--8--11--8--11--8--11--11--11--------|--10--10--11--10----------13--11--|
G|--10--------------------------------------------|------------------10--------------|
D|------------------------------------------------|----------------------12----------|
A|------------------------------------------------|----------------------------------| 
E|------------------------------------------------|----------------------------------|

(VOICE):

E|------------------------------8--10--8--|----------------------------
B|--8--8--10--11--8--11--8--11------------|--10--10--11--10--8---------
G|----------------------------------------|---------------------10-----
D|----------------------------------------|-------------------------8--
A|----------------------------------------|----------------------------
E|----------------------------------------|----------------------------

  -----------------------8------|
  --10--11--10--8-----------11--|
  ------------------10----------|
  ------------------------------|
  ------------------------------|
  ------------------------------|

(VOICE):

E|-----------------------------|------------------------------|-----------------------------
B|----------------------8------|----------------------11--11--|----------------------8------
G|--10--10--10--10--10-----10--|--10--10--10--10--10----------|--10--10--10--10--10-----10--
D|-----------------------------|------------------------------|-----------------------------
A|-----------------------------|------------------------------|-----------------------------
E|-----------------------------|------------------------------|-----------------------------

  ---------------------8------|
  --10--11--10--8---------11--|
  -----------------10---------|
  ----------------------------|
  ----------------------------|
  ----------------------------|

(VOICE):

E|-----------------------------|------------------------------|-----------------------------
B|----------------------8------|----------------------11--11--|----------------------8------
G|--10--10--10--10--10-----10--|--10--10--10--10--10----------|--10--10--10--10--10-----10--
D|-----------------------------|------------------------------|-----------------------------
A|-----------------------------|------------------------------|-----------------------------
E|-----------------------------|------------------------------|-----------------------------

  ------------------------8------|
  -----10--11--10--8---------11--|
  --------------------10---------|
  --8----------------------------|
  -------------------------------|
  -------------------------------|

E|--------------------------------|
B|--11--10--8--6--13--11--10--11--|
G|--------------------------------|
D|--------------------------------|
A|--------------------------------|
E|--------------------------------|
        
Comments

No comments yet