Gametabs
Home
Tabs
Random

Lucas Love

Average rating: 5.000

1 ratings

Composer:

Tabber:

Style:

Instrument:

Created: October 01, 2007 at 12:00 AM

            (0:00-0:18) [0:00-0:13]

E)--------1-------1------1--------1--------0-----------------
B}------0---0-------0------0---------3--------3---3--------1-
G)----2--------2------2-------2--------2---2--2------0-------
D)--0-------------0---------------0---------------2----2-----
A)-----------------------------------------------------------
E)-----------------------------------------------------------

(0:18-0:30) [0:13-0:25]

E)---------------0---------------------------------------------------
B}--------1---3-----3---3---1---0------------------0--0------1--0h1--
G)---2----2-----------2---2--------2------1---1--2-------2-----------
D)------2--------2--2-----------0------0------0-------2----2-----2---
A)-0----------------------------------------2------------------------
E)-------------------------------------------------------------------

E)----------------0--1--3-
B}-3--2-----2--3----------
G)-------2----------------
D)----2-------------------
A)------------------------
E)------------------------

(0:30-0:43) [0:25-0:39]
At about (0:43) [0:39] the sound-file skips and so I improv'd slightly through it.

E)-(1)----1-------1------1-------1--------0----------------------0---------------
B}------0---0-------0------0--------3--------3---3--------1--3------3---------2--
G)----2--------2------2-------2-------2---2--2------0------------0---------0--0--
D)--0-------------0--------------0---------------2----2------2---------2------2--
A)------------------------------------------------------------------0---------0--
E)-------------------------------------------------------------------------------

(0:43-0:54) [0:39-0:50]

E)----0--1--3-----------5----------------------------------------------------------
B}-3-----------------6----6------------------------0-----0--------------3---1------
G)----------------5----------5------------------4-----4--------------0----0--------
D)-------------------------------------------0--------------------2---------------2
A)-----------/5-----------------5appx2------------------------3----------------0--
E)---------------------------------------3-----------------------------------------

(0:54-1:01) [0:50-0:57]

E)-------------------------------------------------------
B}--------3----1----------3-----1---------------------0--
G)------2----2----------2----2-----------2--1---1--2-----
D)----3---------------3----------------------------------
A)--0---------------2----------------2-------------------
E)---------------------------------0---------------------

(1:01-1:11) [0:57-1:08]

E)-------------------------------------------------------------------------------
B}-----------0--------------------0--------------------0-----------------0-------
G)--------2----2---------------5-----5--------------5-----5------------5----5----
D)-----2---------2-----------5----------5--------4-----------4-------3--------3--
A)---0--------------------0-------------------0-------------------0--------------
E)-------------------------------------------------------------------------------

(1;11-Fade to End) [1:08-1:23]

E)---------------------------------------------------------------------------------
B}--------0--------------------0------------------0-----------------0--------(0h1)-
G)-----2----2---------------5----5-------------5----5------------2----2------------
D)---2--------2-----------5--------5--------4---------4-------2---------3----------
A)-0--------------------0-----------------0-----------------0----------------------
E)-------------------------------------------------(and fading out into ending...)-

(I added this chord to my version. The video just ended abruptly.)
Finishing with an Asus2 chord, done with a slightly arpeggiated reverse-strum

[1:24-1:25]

E)--0---------------------
B}----0-------------------
G)------2-----------------
D)--------2---------------
A)----------0-------------
E)------------------------

+++++++++++++++++++++[END OF TAB]++++++++++++++++++++++++++++++++++++++++++++

        
Comments

@joniaggro (July 22, 2008 at 8:04 PM)

porfin,e estado buscando estoi ase mucho(o yeah,i be weating for this moment to find this tab)