Gametabs
Home
Tabs
Random

Music Box Theme

Average rating: 5.000

3 ratings

Composer:

Tabber:

Style:

Instrument:

Created: July 28, 2009 at 12:00 AM

            Music Box
Fable 2
Composed by Danny Elfman and Russel Shaw
Arranged by Pim and Daan van den Berg
27/07/09

*Notes: We had to transpose the lead guitar to be able to play it
on an acoustic guitar. The pitch of the original song is one octave higher.

Guitar 1


     Q    E    Q    S S      Q    E  Q    E     Q    S S Q    E   
E||---------------------|--------------------|-------------------|
B||----------5g6----4-6-|--6g7----4--6-------|--4----2-4-6-------|
G||--3----6-------------|-----------------3--|----------------6--|
D||---------------------|--------------------|-------------------|
A||---------------------|--------------------|-------------------|
E||---------------------|--------------------|-------------------|


  Q    E  Q.        Q.     Q    S S      Q    E  Q.        Q    S S Q    E   
-----------------|---------6----4-6-|--6g8----4---------|-------------------|
-------7--6------|------------------|------------6------|--4----6-7-6-------|
--5--------------|--3---------------|-------------------|----------------6--|
-----------------|------------------|-------------------|-------------------|
-----------------|------------------|-------------------|-------------------|
-----------------|------------------|-------------------|-------------------|


                              ^        
  Q    E  Q.          Q    E  Q.       
-------5--6-------||-------5--6------||
------------------||--1-------6------||
--5--------------*||----------6------||
-----------------*||----------8------||
------------------||----------8------||
------------------||----------6------||


Guitar 2 (capo 1)


     E  E  E  E  E  E     E  E  E  E  E  E     E  E  E  E  E  E   
E||--------------------|--------1--------0--|-----------------0--|
B||--------1--------1--|-----3--------1-----|-----0--3-----1-----|
G||-----2--------2-----|--------------------|--------------------|
D||--------------------|--------------------|--------------------|
A||--0--------0--------|--0--------0--------|--0--------0--------|
E||--------------------|--------------------|--------------------|


  S S S S E  E  E  E     E  E  E  E  E  E     E  E  E  E  E  E   
----------1--0--4--7--|--------------------|--------1--------0--|
--0-------------------|--------1--------1--|-----3--------1-----|
----1---1-------------|-----2--------2-----|--------------------|
------2---------------|--------------------|--------------------|
----------------------|--0--------0--------|--0--------0--------|
----------------------|--------------------|--------------------|


  E  S S S S E  E  E     E  E  E  E  E  E       E  E  E  Q.       
---------0-1-0--------|---------------------||------------------||
-----1-3--------1-----|--------0------------||--------0---------||
-------------------2--|--1--------------2--*||--1--------2------||
----------------------|-----2--------2-----*||-----2------------||
--0-------------------|-----------0---------||------------------||
----------------------|---------------------||------------------||

        
Comments

@danny865 (May 18, 2010 at 5:43 PM)

I love it, I can't notice any mistakes! Keep it up :)