Gametabs
Home
Tabs
Random

Theme of Dai Goroh

Average rating: No ratings

Composer:

Tabber:

Style:

Instrument:

Created: January 26, 2016 at 12:00 AM

            Song: Theme of Dai Goroh
Game: F-Zero: GX
Composer(s): Hidenori Shoji, Daiki Kasho
Tab creator: Kyle8497
Date created: 1/26/16


Legend:

x - Palm mute the following note.
\ - Slide down (to).
/ - Slide up (to).
h - Hammer-on.
p - Pull-off.
~ - Sustain/finger vibrato.

-------------------------------------------





Guitar 1

Intro                                                 (After x3)
e|-----------------------------------------|          |-----------------------------------------|
B|-----------------------------------------|          |-----------------------------------------|
G|-----------------------------------------|          |-----------------------------------------|
D|---------2-----------7-7-7-7-6-7---------| x3       |---------2-----------7-7-7-7-7-7---------|
A|-2-2-4-2-0-2-4-2---2-5-5-5-5-4-5---------|          |-2-2-4-2-0-2-4-2---2-5-5-5-5-5-5---------|
E|-0-0-2-0---0-2-0---0---------------------|          |-0-0-2-0---0-2-0---0---------------------|



Verse
e|-----------------------------------------|------------------------------------------|
B|-----------------------------------------|------------------------------------------|
G|-7-7-7-7-6-7---7-7-7-7-6-----------------|------------------------------------------|
D|-------------------------7-5/-7\-5~------|-------2---2---4-----2---2~--4~-----------|
A|-----------------------------------------|-4h5-5---5---5--55-----5---------5~\------|
E|-----------------------------------------|------------------------------------------|

e|-----------------------------------------|------------------------------------------|
B|-----------------------------------------|------------------------------------------|
G|-7-7-7-7-6-7---7-7-7-7-6---5/6~----------|------------------------------------------|
D|-------------------------7-----7~--------|-------------2---2---2h4-----2~--4~-------|
A|-----------------------------------------|-5-5-5-5-5-5---5---5-----5~----------~5---|
E|-----------------------------------------|------------------------------------------|



Chorus                                                (After x3)
e|-----------------------------------------|          |-----------------------------------------|
B|-----------------------------------------|          |-----------------------------------------|
G|-------7-5-------7~---7------------------|          |-------7-5-------7~---7-------5\7-7~\----|
D|-------5-3-7-7-7-5~---5-5-5---5-7--------| x3       |-------5-3-7-7-7-5~---5-5-5--------------|
A|-2-2-2-----5-5-5--------3-3---3-5--------|          |-2-2-2-----5-5-5--------3-3--------------|
E|-0-0-0-----------------------------------|          |-0-0-0-----------------------------------|



Bridge (Bridge repeats once)
                            (After x2 and x3)             (After x4)
e|--10--10--10~10---|       |---------------------|       |--------------------|
B|------------------|       |--10-10--------------|       |--10-10-10---10-----|
G|------------------|       |---------------------|       |--------------------|
D|------------------| x4    |---------------------|       |--------------------|
A|------------------|       |---------------------|       |--------------------|
E|------------------|       |---------------------|       |--------------------|



Chorus 2                             	              (After x4)
e|-----------------------------------------|          |-----------------------------------------|
B|-----------------------------------------|          |-----------------------------------------|
G|-------7-5-------7~---7------------------|          |-7-6-----6h7-6------6h7-7~\--------------|
D|-------5-3-7-7-7-5~---5-5-5---5-7--------| x4       |-----7-7-------7-------------------------|
A|-2-2-2-----5-5-5--------3-3---3-5--------|          |-----------------------------------------|
E|-0-0-0-----------------------------------|          |-----------------------------------------|



Bridge 2      
                                (After x1, x2,
                                x3, x5, and x7)        (After x4 and 8x)      (After x6)
e|----------------------|       |--------------|       |--------------|       |--------------|
B|----------------------|       |--------------|       |--------------|       |--------------|
G|-------7-------7------|       |-7-7p6--------|       |-6-6h7--------|       |-7-7p6-7------|
D|----------------------| x8    |--------------|       |--------------|       |--------------|
A|-x5-x5---x5-x5----5~--|       |-------x5-x5--|       |--------------|       |--------------|
E|----------------------|       |--------------|       |--------------|       |--------------|




Guitar 2

Bridge   (Begins with Guitar 1, Bridge 1 repeat)
e|-----------------------------------------|----------------2-----3-----5\-----------|
B|-----------------------------------------|-----3----5------------------------------|
G|-2~-------------2~-----------------------|-0h2--0h2---0h2---0h2---0h2--------------|
D|------------0h2--------------------------|-----------------------------------------|
A|-----------------------------------------|-----------------------------------------|
E|-----------------------------------------|-----------------------------------------|
        
Comments

No comments yet