Gametabs
Home
Tabs
Random

Ranking Screen

Average rating: 5.000

1 ratings

Composer:

Tabber:

Style:

Instrument:

Created: September 30, 2007 at 12:00 AM

            Ranking Screen
Excitebike
Composed by Soyo Oka

3/29/07

e-------10--8-------10--8------7-7-7-8-7--
B----8-----------8-----------8------------
G--9-----------9-----------9--------------
D-----------------------------------------
A-----------------------------------------
E-----------------------------------------

e--7--5-----5-----5-7-----7-----7------------8--
B-------6-----6-------6-----6--------5-6-7-8----
G---------7-----7-------7-----7----7------------
D-----------------------------------------------
A-----------------------------------------------
E-----------------------------------------------

        
Comments

@Pistachio (March 30, 2007 at 1:55 AM)

this is a nice easy spng to learn thanks.


@nozzie (April 08, 2007 at 1:07 AM)

nicely done i love excite bike


@Sgt Reed (July 21, 2011 at 8:51 PM)

I love this song!! Always puts you in a good mood!