Gametabs
Home
Tabs
Random

Everlasting Summer

Average rating: 5.000

1 ratings

Composer:

Tabber:

Style:

Instrument:

Created: June 23, 2020 at 12:00 AM

            Title: Everlasting summer
Game: Everlasting summer [Бесконечное лето]
Composed by: S. Eybog [С. Ейбог]
Arranged and tabulated by: A. Zadorin [А. Задорин]
2020

The original track: https://www.youtube.com/watch?v=Xc5o7DyI0-4

(The attached ZIP-file contains this tablature, a sheet music, and the GNU LilyPond
source file for the sheet music.)

This version uses the standard tuning and is slightly reworked in comparison to the earlier
drop-D version. Also, it is much easier to play.

********************************************************************************************

[Introduction]

4/4 E     E     E     E     H             W     E     E     E     E     H             H.   Q
e|-------------------------------------|-----|-------------------------------------|----------|
B|--------------------3<15>-L----------|-----|--------------------3<15>-L----------|----------|
G|--------------4<16>-------L----------|-----|--------------4<16>-------L----------|----------|
D|--------5<17>-------------L----------|-----|--------4<16>-------------L----------|----------|
A|-------------------------------------|-----|--2<14>-------------------L----------|----------|
E|--3<15>-------------------L----------|-----|-------------------------------------|-------7\-|
    p

5
    E     E     E     E     H             W                         W            W
e|-------------------------------------|-------------------------|--2<14>-----|--L--||
B|--------------------3<15>-L----------|-------------------------|--3<15>-----|--L--||
G|--------------4<16>-------L----------|--0----------------------|--4<16>-----|--L--||
D|--------5<17>-------------L----------|-------------------------|--4<16>-----|--L--||
A|-------------------------------------|-------------------------|--2---------|--L--||
E|--3-----------------------L----------|-------------------------|------------|-----||


[Verse]

9
    H       E E E E     E E E E H           H       E E E E     E E E E H
e|--------------0----|--0h2--------------|------------5p2-0--|--0h2--------------|
B|------------0---3--|------0-3-L--------|-------------------|------0-3-L--------|
G|-------------------|--------2-L--------|-------------------|--------2-L--------|
D|-------------------|-------------------|-------------------|-------------------|
A|-------------------|-------------------|-------------------|--2-------L--------|
E|-------------------|--3-------L--------|--3----------------|-------------------|
             mf

13
    H       E E E E     E E E E H           H       E E E E     Q.    E H
e|--------------0----|--0h2--------------|------------0------|-------------------|
B|------------0---3--|------0-3-L--------|--------------3-2--|--------3-L--------|
G|-------------------|--------2-L--------|-------------------|--------2-L--------|
D|-------------------|-------------------|-------------------|--4----------------|
A|--2----------------|-------------------|-------------------|--2-------L--------|
E|-------------------|--3-------L--------|--3----------------|-------------------|

17
    H       E E E E     E E E E H           Q.    E E E E E     E E E E H
e|--------------0----|--0h2--------------|--------0-L-5p2-0--|--0h2--------------|
B|------------0---3--|------0-3-L--------|--------0-L--------|------0-3-L--------|
G|-------------------|--------2-L--------|-------------------|--------2-L--------|
D|-------------------|-------------------|-------------------|-------------------|
A|--2----------------|-------------------|--0----------------|--2-------L--------|
E|-------------------|--3-------L--------|-------------------|-------------------|

21
    Q.    E E E E E     E E E E H           Q.    E E E E E     Q.    E H           H  H
e|--------------0----|--0h2--------------|--------0-L-0---2--|-------------------|--------|
B|--------2-L-0---3--|------0-3-L--------|--------0-L---3----|--0-----3-L--------|--------|
G|--------4-L--------|--------2-L--------|-------------------|--------2-L--------|--------|
D|-------------------|-------------------|-------------------|-------------------|--------|
A|-------------------|-------------------|--0----------------|--2----------------|--2-----|
E|--2----------------|--3-------L--------|-------------------|-------------------|--------|


[Chorus]

26
6/8 Q   E E E E     Q   E E Q   2/4 Q   Q   6/8 Q   E E E E     Q   E E Q   2/4 Q   Q
e|---------------|---------------|-----------|---------------|---------------|--2--------|
B|--0-----3------|--0-----3------|--0--------|--0-----3------|--0-----3------|------3----|
G|------0-0------|------0-0------|------2----|------0-0------|------0-0------|--2--------|
D|---------------|---------------|--0---0----|---------------|---------------|--0---0----|
A|----------X----|----------X----|-----------|----------X----|----------X----|-----------|
E|--0---R-0---L/-|--3---R-3------|-----------|--0---R-0---L/-|--3---R-3------|-----------|
    f
    
32                                              CII-----------------|
6/8 Q   E E E E     Q   E E Q   2/4 Q   Q   6/8 Q   E E Q       Q   E E Q   2/4 Q   Q
e|---------------|---------------|-----------|--2------------|--2-----3------|--5---2----|
B|--0-----3------|--0-----3------|--0--------|--------3------|---------------|-----------|
G|------0-0------|------0-0------|------2----|---------------|---------------|-----------|
D|---------------|---------------|--0---0----|---------------|---------------|--0---0----|
A|----------X----|----------X----|-----------|--2---R-2------|--3---R-3------|-----------|
E|--0---R-0---L/-|--3---R-3------|-----------|----------X----|----------X----|-----------|

38
6/8 E E E E E E     E E E E Q   2/4 E E E E 6/8 E E E E E E     E E E E E E 2/4 E E E E
e|---------------|---------------|-----------|---------------|---------------|--2--------|
B|--0-----3------|--0-----3------|--0--------|--0-----3------|--0-----3------|------3----|
G|------0-0------|------0-0------|------2----|------0-0------|------0-0------|--2--------|
D|---------------|---------------|--0-0-0-0--|---------------|---------------|--0-0-0-0--|
A|----------X----|----------X----|-----------|----------X----|----------X----|-----------|
E|--0-0-0-0---L/-|--3-3-3-3------|-----------|--0-0-0-0---L/-|--3-3-3-3------|-----------|

44                                              CII-----------------|
6/8 E E E E E E     E E E E Q   2/4 E E E E 6/8 E E E E E E     E E E E E E 2/4 E E E E
e|---------------|---------------|-----------|--2------------|--2-----3------|--5-3-2----|
B|--0-----3------|--0-----3------|--0--------|--------3------|---------------|--------3--|
G|------0-0------|------0-0------|------2----|---------------|---------------|-----------|
D|---------------|---------------|--0-0-0-0--|---------------|---------------|--0-0-0-0--|
A|----------X----|----------X----|-----------|--2-2-2-2-2-2--|--3-3-3-3-3-3--|-----------|
E|--0-0-0-0---L/-|--3-3-3-3------|-----------|---------------|---------------|-----------|


[Verse]

50
4/4 E E E E E E E E     E E E E E E E E     E E E E E E E E
e|--0h2--------------|------------5p2-0--|--0h2--------------|
B|------0-3---3p0----|----3p0------------|------0-3---3p0----|
G|--------2-------0--|--------0----------|--------2----------|
D|-------------------|-------------------|----------------4--|
A|----------X--------|----------X--------|--2----------------|
E|--3----------------|--L----------------|----------X--------|

53
    E E E E E E E E     E E E E E E E E     E E E E E E E E     Q.    E E  E E E
e|--------------0----|--0h2--------------|------------0------|-----------0g2-0----|
B|----3p0-----0---3--|------0-3---3p0----|----3p0-------3-2--|--------3--------3--|
G|-------------------|--------2-------0--|--------0----------|--------2-----------|
D|--------4----------|-------------------|-------------------|--4-----------------|
A|--L----------------|----------X--------|----------X--------|--2-----------------|
E|----------X--------|--3----------------|--L----------------|----------X---------|

57
    E E E E E E E E     E E E E Q   Q       Q.    E E E E E     E E E E Q   Q
e|--------------0----|--0h2--------------|--------0---5p2-0--|--0h2--------------|
B|--0---------0---3--|------0-3----------|--------0----------|------0-3----------|
G|-------------------|--------2----------|-------------------|--------2----------|
D|--------2-0--------|-------------------|-------------------|-------------------|
A|--2-0-------2------|----------X--------|--0----------------|--2-----------2----|
E|------2-0----------|--3-----------3----|----------X--------|----------X--------|

61
    Q.    E E E E E     E E E E Q   Q       Q.    E E E E E     Q.    E Q   Q       H  H
e|--------------0----|--0h2--------------|--------0---0---2--|-------------------|--------||
B|--------2---0---3--|------0-3----------|--------0-----3----|--0-----3-----0----|--0-----||
G|--------4----------|--------2----------|-------------------|--------2----------|--------||
D|-------------------|-------------------|-------------------|-------------------|--------||
A|----------X--------|----------X--------|--0----------------|--2----------------|--2-----||
E|--2----------------|--3-----------3----|----------X--------|----------X--------|--------||


[Bridge]

66
6/8 Q.    Q.        Q.    Q.    2/4 Q    Q    6/8 Q.    Q.        Q.    Q.    2/4 H
e|---------------|---------------|-------------|---------------|--0<12>-2<14>--|---------|
B|--2<14>-3<15>--|--------0<12>--|-------------|--2<14>-3<15>--|---------------|--2<14>--|
G|---------------|--2<14>--------|-------------|---------------|---------------|---------|
D|---------------|---------------|-4<16>-0<12>-|---------------|---------------|---------|
A|--2------------|--L------------|--L----------|--1------------|--L------------|--L------|
E|---------------|---------------|-------------|---------------|---------------|---------|
    p
    
72  
6/8 Q.    Q.        Q.    Q.    2/4 Q    Q    4/4 W                    W
e|---------------|--0<12>-2<14>--|-5<17>-2<14>-|--0<12>-------------|--3<15>~~~~~~~~~~---|
B|--2<14>-3<15>--|---------------|-------------|--------------------|--------------------|
G|---------------|---------------|-------------|--------------------|--------------------|
D|---------------|---------------|-------------|--------------------|--------------------|
A|--2------------|--L------------|--L----------|--3-----------------|--L-----------------|
E|---------------|---------------|-------------|--------------------|--------------------|

77  CVII---------------------------------------------------------------------------------|
    E  E  E  E  E  E  E  E     E  E  E  E  E  E  E  E     E  E  E  E  E  E  E  E     W
e|--7-----------7-----------|--7-----------7-----------|--7-----------7-----------|---------||
B|--7-10--7-------10--7-----|----10--7-------10--7-----|----10--7-------10--7-----|---------||
G|--7--------9-----------9--|-----------9-----------9--|-----------9-----------9--|---------||
D|--------------------------|--------------------------|--------------------------|--9------||
A|--------------------------|--------------------------|--------------------------|---------||
E|--7-----------------------|--L-----------------------|--9-----------------------|--L------||


[Chorus]

81
6/8 Q       E   Q.              Q       E   Q.          2/4 Q       Q
e|---------------------------|---------------------------|-------------------|
B|-<12>----------------------|-<12>----------------------|-<12>--------------|
G|--------<12>-<7>-----------|-<12>---<12>-<7>-----------|-------------------|
D|---------------------------|---------------------------|-<12>----<7>-------|
A|-<7>-----------------------|---------------------------|-------------------|
E|---------------------------|---------------------------|-------------------|

84
6/8 Q       E   Q.              Q       E   Q.          2/4 Q       Q
e|---------------------------|---------------------------|-------------------|
B|-<12>----------------------|-<12>----------------------|-<7>---------------|
G|--------<12>-<7>-----------|-<12>---<12>-<7>-----------|---------<7>-------|
D|---------------------------|---------------------------|-<12>--------------|
A|-<7>-----------------------|---------------------------|-------------------|
E|---------------------------|---------------------------|-------------------|

87
6/8 Q       E   Q.              Q       E   Q.          2/4 Q       Q
e|---------------------------|---------------------------|-------------------|
B|-<12>----------------------|-<12>----------------------|-<12>--------------|
G|--------<12>-<7>-----------|-<12>---<12>-<7>-----------|-------------------|
D|---------------------------|---------------------------|-<12>----<7>-------|
A|-<7>-----------------------|---------------------------|-------------------|
E|---------------------------|---------------------------|-------------------|

90
6/8 Q.          Q.              Q.          Q.          2/4 Q       Q
e|---------------------------|---------------------------|-------------------|
B|-<12>----------------------|-<7>-----------------------|-------------------|
G|-------------<7>-----------|-------------<5>-----------|-------------------|
D|-<9>-----------------------|---------------------------|-<3>---------------|
A|---------------------------|---------------------------|-------------------|
E|---------------------------|---------------------------|----------7\-------|
                                                                   sfz

93  >     >         >                   >       >
6/8 E E E E E E     E E E E E E 2/4 E E E E 6/8 E E E E E E     E E E E E E 2/4 E E E E
e|--------2------|--0------------|-----------|---------------|---------------|----0------|
B|--0-----3------|--0-----3------|--0---3----|--0-----3------|--0-----3------|--3---3----|
G|------0--------|------0-0------|------2----|------0-0------|------0-0------|--------2--|
D|---------------|---------------|--0-0-0-0--|---------------|---------------|--0-0-0-0--|
A|---------------|---------------|-----------|---------------|---------------|-----------|
E|--0-0-0-0-0-0/-|--3-3-3-3-3-3--|-----------|--0-0-0-0-0-0/-|--3-3-3-3-3-3--|-----------|
    f
    
99  >     >         >                   >
6/8 E E E E E E     E E E E E E 2/4 E E E E 6/8 E E E E E E     E E E E E E 2/4 E E E E
e|--------2------|--0------------|-----------|--2------------|--2-----3------|--5-3-2----|
B|--0-----3------|--0-----3------|--0---3----|--------3------|---------------|--------3--|
G|------0--------|------0-0------|------2----|---------------|---------------|-----------|
D|---------------|---------------|--0-0-0-0--|---------------|---------------|--0--------|
A|---------------|---------------|-----------|--2-2-2-2-2-2--|--3-3-3-3-3-3--|-----------|
E|--0-0-0-0-0-0/-|--3-3-3-3-3-3--|-----------|---------------|---------------|-----------|

105
4/4 W           W
e|--0--------|--L--------||
B|-----------|-----------||
G|-----------|-----------||
D|--2--------|--L--------||
A|-----------|-----------||
E|--0--------|--L--------||

********************************************************************************************

Notation

Above the staff:
n          - measure number n
x/y        - time signature
W          - whole note
Q          - quarter note
E          - eighth note
N.         - dotted note
CN         - bar at fret N
>          - accent

On the staff:
h          - hammer-on (upward legato)
p          - pull-off (downward legato)
/          - upward glissando (slide-up)
\          - downward glissando (slide-down)
g          - grace note (with legato)
L          - tied note (when it is not obvious)
        - natural harmonic at fret N
N       - artificial harmonic fretted at fret N with vibration stopped at fret M
0       - natural harmonic at fret N played with the artificial harmonics technique
~          - vibrato
R          - explicitly indicated rest
X          - percussive sound: hit either a string or the soundboard above the strings with
             the thumb to make a bright sound. If a string is hit, try not to mute the
             preceding bass

Below the staff:
p,mf,f     - dynamics (volume)
sfz        - sforzando (play loudly with a strong attack)

        
Comments

@olenellus (June 28, 2020 at 2:43 PM)

CORRECTION to the notation:

< N>       - natural harmonic at fret N
N< M>      - artificial harmonic fretted at fret N with vibration stopped at fret M
0< N>      - natural harmonic at fret N played with the artificial harmonics technique

These lines were crippled by the automatic code sanitizing routine of GameTabs submission module because I forgot to modify my usual notation. The ZIP-file contains a text file with the correct lines.


@MaryTufts (June 26, 2021 at 12:26 PM)

Nice one